.

banners

Tablatura fácil de... Vuelve. Zenobia.


  Pedazo de balada la que os presento hoy en Tabs fáciles de Zenobia. Da ganas de oirla sin parar y como no de aprender a tocarla. A los que os pase eso y echéis un vistazo por este blog a ver que os parece la tablatura.
   Un saludo.
   TabsFácil.
                                                                                                                            




Vuelve. Zenobia.





FaM                   bSiM           FaM
   Sigo siendo un naufrago a la deriva,

                       bSiM
Que no encuentra dirección a donde ir.

FaM                      bSiM
Voy buscando alguna estrella que me guie

Rem           Lam     Do
Desde que no estas aquí.


Imagino a cada instante tu sonrisa,

Mil momentos que se fueron junto a ti.

Hoy he vuelto a sonreir sin alegría

Por que sé que te perdí.




Si el amor dura por siempre si es verdad que aun me quieres

1.----------------------------------------------
2.----------------------------------------------
3.----------------------------------------------
4.-3---------7-----5-----3--------------7------5
5.-1---------5-----3-----1--------------5------3
6.----------------------------------------------




     Vuelve, vuelve porque nada es suficiente si no estas

1.-------------------------------------------
2.-------------------------------------------
3.-------------------------------------------
4.--------5------7-------------------------3-
5.-3------3------5-------------------------1-
6.-1-----------------------------------------

Eternamente nena.



   Vuelve, vuelve te daré mi corazón en cada soplo

1.----------------------------------------------
2.----------------------------------------------
3.----------------------------------------------
4.-----------5-----7---------------------------3
5.-3---------3-----5---------------------------1
6.-1--------------------------------------------

De mi voz ohh



(1:29)

1.-------------13h12---------------------------
2.--------10---------15-13---------------------
3.-12(14)------------------12(14)(12)-10h12----
4.---------------------------------------------
5.---------------------------------------------
6.---------------------------------------------




1.---------------13----------
2.---------13h15----18(20)-18
3.---12h14-------------------
4.---------------------------
5.---------------------------
6.---------------------------. . .

No hay comentarios:

Publicar un comentario