.

banners

Tablatura fácil de... Unbreakable. Stratovarius.

 
Del decimoquinto álbum de la banda finlandesa "Nemesis" a la primera escucha, "Unbreakable" era sin duda el tema más pegadizo, por eso hoy os quiero dejar unos momentos en tablaturas fáciles de la intro de piano de piano y primer riff del tema que espero que os guste y disfrutéis.
  Un saludo. 
  TabsFácil.





Unbreakable. Stratovarius




(Piano)

1.-------12-14-16--------16-14----16-12----------
2.-14-16----------14--14-------14-------16-14--14
3.-----------------------------------------------
4.-----------------------------------------------
5.-----------------------------------------------
6.-----------------------------------------------



1.------12-14-16-
2.---16----------
3.---------------
4.---------------
5.---------------
6.---------------



(0:12) piano

1.-------12-14-16----16-14---16-12--------------12-14
2.-14-16----------14---------------16-14--14-16------
3.---------------------------------------------------
4.---------------------------------------------------
5.---------------------------------------------------
6.---------------------------------------------------



1.-16----16-14--16-12--------------12-14-16---
2.----14--------------16-14--14-16----------14
3.--------------------------------------------
4.--------------------------------------------
5.--------------------------------------------
6.--------------------------------------------



(0:12)

1.--------------------------------------------
2.--------------------------------------------
3.--------------------------------------------
4.-------------------6-6-4-6---4--------------
5.-4-4-2-4--7-7-6-7--4-4-2-4---2---2---4-4-2-4
6.-2-2-0-2--5-5-4-5----------------0---2-2-0-2




1.---------------------------------
2.---------------------------------
3.---------------------------------
4.-----------6-6-4-6---4---9-9-8-6-
5.-7-7-6-7---4-4-2-4---2---7-7-6-4-
6.-5-5-4-5-------------------------




(0:40)/(1:00)

1.---------------------------------------------------
2.---------------------------------------------------
3.---------------------------------------------------
4.-6-6-4-6-6-4-6-6-4-6-6-4-6-6-4-6-6-4-6-6-4-6-6--4-6
5.-4-4-2-4-4-2-4-4-2-4-4-2-4-4-2-4-4-2-4-4-2-4-4--2-4
6.---------------------------------------------------


(1:09)

1.--------------------------------------------
2.--------------------------------------------
3.--------------------------------------------
4.-------------------6-6-4-6---4--------------
5.-4-4-2-4--7-7-6-7--4-4-2-4---2---2---4-4-2-4
6.-2-2-0-2--5-5-4-5----------------0---2-2-0-2




1.----------------------------
2.----------------------------
3.----------------------------
4.-------------6-6-4-6---4----
5.---7-7-6-7---4-4-2-4---2---2
6.---5-5-4-5-----------------0



(1:23)

1.--------------------------------------------
2.--------------------------------------------
3.--------------------------------------------
4.--------------------------------------------
5.-4-2-4-6--7-6-7-9--11-9-11--13---9---------4
6.-2-0-2-4--5-4-5-7---9-7-9---11---7---7-5-4-2





1.----------------------------------------------
2.----------------------------------------------
3.----------------------------------------------
4.-------------------------------13---11---13-11
5.-4-2-4-6--7-6-7-9--11-9-11--13-11---9----11-9-
6.-2-0-2-4--5-4-5-7---9-7-9---11----------------



1.-------------
2.-------------
3.-------------
4.---9---8---6-
5.---7---6---4-
6.-------------

No hay comentarios:

Publicar un comentario