.

banners

Tablatura fácil de... Satanael. Mägo de Oz.


  Una intro que nos sirve, como todas las tablaturas fáciles que os voy entregando, para practicar y disfrutar tocando la guitarra, en este caso con una de las mejores bandas del momento.
  Un saludo.
  TabsFácil.





Satanael. Mago de oz

1.------------------------------------------------------
2.------------------------------------------------------
3.-----------7-------------------7--------------7-------
4.-------8h7---8-7h8--------7------7-8------8h7---8-7h8-
5.----10-----------------10---10---------10-------------
6.-10-----------------10---------------10---------------

      (0:12)  “Soy la…
1.------------------------------------------------------
2.------------------------------------------------------
3.------------7-------------------7-----------------7---
4.-------7---------7-8--------8h7---8-7h8-------8h7---8-
5.----10---10---10---------10----------------10---------
6.-10-------------------10-----------------8------------

1.-----------------------------------------------------
2.-----------------------------------------------------
3.---------5---8------------5---7------------------7---
4.-7h8---8---8---8-7h8----7---7---8-7-8--------8h7---8-
5.-----6----------------5-------------------10---------
6.---------------------------------------10------------

No hay comentarios:

Publicar un comentario en la entrada