.

banners

Tablatura fácil de... Sácale brillo a una pena. Mägo de Oz.

  El disco con el que debutara en Mägo de Oz su último vocalista hasta la fecha, Zeta, y en Tablaturas fáciles uno de los temas del álbum, "Hechizos, pócimas y brujería" en concreto, "Sácale brillo a una pena" tema hard rockero donde los haya y en donde mejor se desenvuelve la voz de Zeta.
  Un saludo.
  TabsFácil.



Sácale brillo a una pena. Mago de oz.

1.-----------------------------------------------
2.-----------------------------------------------
3.-----------------------------------------------
4.-----------------------------------------------
5.------5-5-5---3-3---5-5-5-5---3-3---5-5-5---3-3
6.-3/\--3-3-3---1-1---3-3-3-3---1-1---3-3-3---1-1

1.------------
2.------------
3.------------
4.---3-3---5-5
5.---1-1---3-3
6.------------


     “Para olvidar...
1.----------------------------------------------
2.----------------------------------------------
3.----------------------------------------------
4.---------8------------------------------------
5.-5---3---6---3----------1------5-5-5-5-5-5-5-5
6.-3---1-------1---1---3-----3---3-3-3-3-3-3-3-3


1.-----------------------------------------------------------
2.-----------------------------------------------------------
3.-----------------------------------------------------------
4.-----------------8-8-8-8-8-8-8-8---------------------------
5.-3-3-3-3-3-3-3-3-6-6-6-6-6-6-6-6-3-3-3-3-3-3-3-3-------1---
6.-1-1-1-1-1-1-1-1-----------------1-1-1-1-1-1-1-1---1-3---3-


“Y dormirás…
1.-------------------
2.-------------------
3.-------------------
4.---------------3---
5.---3---5---3---1---
6.---1---3---1-------


1.------------------------------------------
2.------------------------------------------
3.------------------------------------------
4.------------------------------------------
5.-5-5-5---3-3---5-5-5-5---3-3---5-5-5---3-3
6.-3-3-3---1-1---3-3-3-3---1-1---3-3-3---1-1


1.------------
2.------------
3.------------
4.---3-3---5-5
5.---1-1---3-3
6.------------

1.---------------------------------------------------
2.---------11------------10-----------8--------10----
3.------------12------------10----------8---------10-
4.----12-------------10-----------8---------10-------
5.-10--------------8------------6---------8----------
6.---------------------------------------------------


1.------------------------------------------------------
2.--------11--------------------------------------------
3.-----------12-----------------------------------------
4.----12------------------------------------------------
5.-10------------------5-5-5-5-5-5-5-5---3-3-3-3-3-3-3-3
6.----------------8/---3-3-3-3-3-3-3-3---1-1-1-1-1-1-1-1


                         “Y vestirás…
1.--------------------------------------
2.--------------------------------------
3.--------------------------------------
4.-8--------------------------------3---
5.-6---3-------1--------3---5---3---1---
6.-----1---1-3---3------1---3---1-------


“Donde están…
1.-------------------------------------------
2.-------------------------------------------
3.-------------------------------------------
4.----8--3---------8--5--7-----8--3-----3---7
5.-5--6--1--3---5--6--3--5--5--6--1--3--1---5
6.-3--------1---3-----------3--------1-------


“Deja que…
1.--------------------------------------------
2.--------------------------------------------
3.--------------------------------------------
4.-10--10--10-10-—10---10--10-10-10--7--7--7-7
5.-8---8----8-8----8---8----8-8---8--5--5--5-5
6.--------------------------------------------

1.--------------------------------------------
2.--------------------------------------------
3.--------------------------------------------
4.-7---7---7-7-7---10-----10---10-10--10---10-
5.-5---5---5-5-5----8-----8-----8-8----8----8-
6.--------------------------------------------

1.-------------------------------------------
2.-------------------------------------------
3.-------------------------------------------
4.----------------------------0-----0--------
5.-10-10-10---7---7---7-7---1---3-1---3-1---3
6.-8---8—8----5---5---5-5-------------------1


(2:55)
1.------------------------------------------------
2.------------------------------------------------
3.--------------------5------------5--------------
4.--------8---3-3-3---3---------8--3---7---------8
5.-5-5-5--6---1-1-1------5-5-5--6------5--5-5-5--6
6.-3-3-3-----------------3-3-3------------3-3-3---

1.-----------------------
2.-----------------------
3.-----------5-------5---
4.---3-3-3---3---3---3---
5.---1-1-1-------1-------
6.-----------------------

1.--------------------------------------------
2.--------------------------------------------
3.--------------------------------------------
4.----10---5-----------10---7---9-----10---5--
5.-7---8---3---5--7---8---5---7--7---8---3---5
6.-5-----------3--5--------------5-----------3


1.----------------------------------------------
2.----------------------------------------------
3.----------------------------------------------
4.-5---9------10---7---9------10---5-------5---7
5.-3---7---7---8---5---7---7---8---3---5---3---5
6.---------5---------------5-----------3--------


1.----------------------------(2 veces)-----
2.------------------------------------------
3.------------------------------------------
4.---------------------------------7-7---9-9
5.---7-7-7---3-3---7-7-7-7---3-3---5-5---7-7
6.---5-5-5---1-1---5-5-5-5---1-1------------

No hay comentarios:

Publicar un comentario