.

banners

Acordes y Tablatura fácil de... River. Opeth.


   Reconozco no ser muy seguidor de este estilo pero es que  Opeth me cautivó con este disco, y en especial, con temas como este "River" y es por eso que lo recomiendo desde aquí, desde mi blog, a la vez que os dejo unos momentos en tablatura y acordes que, como siempre, espero que os guste y disfrutéis.
 Reconozco no ser muy seguidor de este estilo pero es que 
  Un saludo.
  TabsFácil.
                                                       


River. Opeth.


Sol   Do         Sol

Show me the signs

        Do            Sol

of troubles in your heart.

       Do       Sol

Spare me your lies

      Do         Sol

feel me you're mine.

Fa         Do                  Sol

When our bodies float on the river

Fa       Do        Sol

do the oceans of demise.

Sol Do  Sol

Lay me safe

           Do            Sol

to the secrets of the sign

               Do       Sol

but you don't need to stay

                Do    Sol

and you don't need a lie.

Fa         Do                  Sol

When our bodies float on the river

Fa       Do        Sol

do the oceans of demise...

(1:50)

1.-------------------------------------------
2.-------------------------------------------
3.-------------------------------------------
4.-/12---10---10h12h10h9--9h10h9--------9h10-
5.---------------------------------10h12-----
6.-------------------------------------------

1.-------------------------------------------

2.-------------------------------------------
3.-------------------------------------------
4.-7h9--7-/5---9h10h9----9------------------
5.--------------------12----10h12--9h10--7h9-
6.-------------------------------------------

1.------------------------------------------

2.------------------------------------------
3.-------------------/7--9--7---------------
4.-----------------------------9h10h9--9h10h9
5.-5h7--3h5--2h3----------------------------
6.---------------3--------------------------

1.-------------------------------------------

2.-------------------------------------------
3.---------------------------12-14(16)(14)-12
4.----9------9/-7/-5-/12-/17----------------
5.-12--10h12--------------------------------
6.-------------------------------------------...

No hay comentarios:

Publicar un comentario