.

banners

Tablatura fácil de... Orphan. Toto.


    "XIV" llevaba por nombre el último trabajo de Toto. Yo personalmente estoy encantado con este disco y eso que siempre he sido mas metalero. El caso es que quiero dejaros como siempre, unos momentos en tablatura fácil del tema con el que presentaron el disco "Orphan".
  Un saludo.
  TabsFácil.






Orphan. Toto.


1.--------------------------------------
2.--------------------------------------
3.-------0--------0--------0--------0---
4.-----4---4----4---4----4---4----4---4-
5.---5----------------------------------
6.------------5--------7--------3----...

  (0:41)
1.---3-3-2--0-0-2--2-2-0--2-2-5-
2.---3-3-3--3-3-3--3-3-3--3-3-5-
3.---2-2-2--2-2-2--2-2-2--2-2-2-
4.------------------------------
5.------------------------------
6.----------------------------...

  (0:57)
1.--------------------------------------
2.--------------------------------------
3.-------0--------0--------0--------0---
4.-----4---4----4---4----4---4----4---4-
5.---5----------------------------------
6.------------5--------7--------3----...

  (3:09)
1.----------------------------------------
2.----------------------------------------
3.-9/-11--11-11--9h7h9--------------------
4.---------------------7-7--9/11\9--11/12-
5.----------------------------------------
6.----------------------------------------

1.----------------------------------------
2.----------------------------------------
3.--/14--9/-11--9h7h9-/11-11--9h7h9-------
4.----------------------------------7-7---
5.----------------------------------------
6.----------------------------------------

1.----------------------------------------
2.----------------------------------------
3.------------------/14--9/-11--9h7h9-/11-
4.--9/11\9--11/-12------------------------
5.----------------------------------------
6.-------------------------------------...









No hay comentarios:

Publicar un comentario