.

banners

Tablatura fácil de... Breathe. (Until we are no more). Moonspell.

www.tabsfacil.es
Acordes y Tablaturas fáciles para guitarra.


















Breathe. (Until we are no more). Moonspell.

1.---------------------------------------------
2.-12------12------12------12--------12--------
3.----9h11----9h11----9h11----11h9h11---11h9---
4.-------------------------------------------9-
5.---------------------------------------------
6.------------------------------------------...

  (0:08)
1.---------------------------------------------
2.---------------------------------------------
3.-/12-12h11-12h11-12h11-12h11h9-11h9-11h9-11h9
4.---------------------------------------------
5.---------------------------------------------
6.---------------------------------------------

1.----------------------------------------------
2.----------------------------------------------
3.-11h9-11h9-14h12-14h12-14h12-14h12-14h12-12h11
4.----------------------------------------------
5.----------------------------------------------
6.----------------------------------------------

1.----------------------------------
2.----------------------------------
3.-12h11-12h11-12h11-12h11----11-12-
4.-------------------------14-------
5.----------------------------------
6.---------------------------------...

  (0:30)
1.---------------------------------------------
2.---------------------------------------------
3.---------------------------------------------
4.-------5-4-------4h5-------5-4-------4h5-----
5.---5h7-----7-7-7-----5-5-5-----5-5-5-----0h2-
6.---------------------------------------------

1.-----------------------------------------
2.-----------------------------------------
3.---------------------2-------------------
4.---5-4-------4h5-------5-4-4-4-4-2-0--2--
5.-------2-2-2-----2h3---------------------
6.-------------------------------------...

No hay comentarios:

Publicar un comentario