.

banners

Sueños perdidos. Saurom.



    Hoy vuelvo a dedicarles una tabs fácil  a uno de los mejores grupos del panorama nacional, Saurom, pero no de ahora, de hace ya muchos años atrás.  Éste era uno de los temas que elegían como el single adelanto "Sueños perdidos" de lo que sería su último trabajo, que llevaba por nombre "Sueños".
     Os dejo unos momentos en tablatura fácil del tema que como siempre, espero que os guste como ha quedado y lo disfrutéis.
    Un saludo.
    TabsFácil.


Sueños perdidos. Saurom.

   (0:19)
1.-----------------------------------
2.-----------------------------------
3.-----------------------------------
4.--------8-8--------------------8-8-
5.---5-5--6-6--8-8--3--3-3--5-5--6-6-
6.---3-3-------6-6--1--1-1--3-3------

1.-------------------------------------
2.-------------------------------------
3.-------------------------------------
4.---------------------8-8-------------
5.---8-8--3--3-3--5-5--6-6--8-8--3--3-3
6.---6-6--1--1-1--3-3-------6-6--1--1-1


1.----------------------------
2.----------------------------
3.----------------------------
4.--------8-8-----------------
5.---5-5--6-6--8-8--3--3-3--5-
6.---3-3-------6-6--1--1-1--3-...


   (0:34) "No estás aquí pero recuerdo...

1.---10--10-13--13-----10----------10--10
2.-----------------13-----13-11-13-------
3.---------------------------------------
4.---------------------------------------
5.---------------------------------------
6.---------------------------------------

1.--13--13---------------------10-13--13-
2.---------13--11-10----10---------------
3.-------------------12----12------------
4.---------------------------------------
5.---------------------------------------
6.---------------------------------------


1.------10----------10--10-8-------------
2.--13-----13-11-13-----------11-10-11-13
3.---------------------------------------
4.---------------------------------------
5.---------------------------------------
6.---------------------------------------...

  (0:50)...No estás aquí y a veces pienso...

1.--------------------------------------
2.--------------------------------------
3.--------------------------------------
4.--------8-8----------7-7--7------8-8--
5.---5-5--6-6--3--3-3--5-5--5-5-5--6-6--
6.---3-3-------1--1-1---------3-3-------

1.--------------------------------------
2.--------------------------------------
3.-----------------------3-3----------2-
4.----------7-7--7-------1-1----------0-
5.--3--3-3--5-5--5--5-5-------3--3-3----
6.--1--1-1----------3-3-------1--1-1----

1.---------------------------------
2.---------------------------------
3.--2--2-------3-3----------2-2--2-
4.--0--0-------1-1----------0-0--0-
5.--------5-5-------3--3-3---------
6.--------3-3-------1--1-1---------...

  (1:12)...Caminé en los confines del mundo...

1.-----------------------------------
2.-----------------------------------
3.-----------------------------------
4.--------8-8--------------------8-8-
5.---5-5--6-6--8-8--3--3-3--5-5--6-6-
6.---3-3-------6-6--1--1-1--3-3------

1.---------------------------------------
2.---------------------------------------
3.---------------------------------------
4.----------------------8-8--------------
5.---8-8--3-3-3-3--5-5--6-6--8-8--3-3-3-3
6.---6-6--1-1-1-1--3-3-------6-6--1-1-1-1


1.---------------------------
2.---------------------------
3.---------------------------
4.--------8-8----------------
5.---5-5--6-6--8-8--3-3-3-3--
6.---3-3-------6-6--1-1-1-1--...

   (1:35) ...Por fin logré hallar tu rastro...
1.--------------------------------------
2.--------------------------------------
3.--------------------------------------
4.--------------------------------------
5.------------6-6-6-6-----------5-5-5-5-
6.---3-3-3-3-----------1-1-1-1----------

1.--------------------------------------
2.--------------------------------------
3.--------------------------------------
4.--------------------------------------
5.------------6-6-6-6-----------5-5-5-5-
6.---3-3-3-3-----------1-1-1-1----------

1.--------------------------------------
2.--------------------------------------
3.--------------------------------------
4.--------------------------------------
5.------------6-6-6-6-----------5-5-5-5-
6.---3-3-3-3-----------1-1-1-1----------

1.--------------------------------------
2.--------------------------------------
3.--------------------------------------
4.--------------------------------------
5.------------6-6-6-6-----------5-5-5-5-
6.---3-3-3-3-----------1-1-1-1--------...

  (2:27)
1.--------------------------------------
2.--------------------------------15----
3.---14-15h14-14--15h14-14--15h14----15-
4.--------------------------------------
5.--------------------------------------
6.--------------------------------------

1.--------------------------------------
2.--------------------------------------
3.--15--14-15h14-14-14-15--15h14-14--15h
4.--------------------------------------
5.--------------------------------------
6.--------------------------------------


1.------------------------
2.---------------15-------
3.-h14-14--15h14----15-15-
4.------------------------
5.------------------------
6.----------------------...

No hay comentarios:

Publicar un comentario