.

banners

Aprende a tocar...Si dejas que viva en ti. Zenobia.



  Si hablamos de Zenobia quizás no sea este tema el más representativo, quizás deberíamos buscar otros temas super heavys
pero es que a mí, desde el primer día que lo escuche me encantó y es por eso que he intentado sacar los acordes para que lo disfrutéis aquí en Tabs Fácil. Creo que merece la pena. Espero que os guste.
  Un saludo.
  TabsFácil.




 Si dejas que viva en ti. Zenobia. (Acordes).



Fa                     Dom
Tumbado en esta habitación

          Rem
cada vez que me derrumbo

    La#m
intento oir tu voz.

Fa                    Dom
Me dejo el alma en intentar

         Rem        La#m
soportar un golpe… uno más.

Fa                 Dom
La música me hace seguir

 Rem
cuando se cierra una puerta

   La#m
otra pronto se ha de abrir.

Fa               Dom
Amigos vienen y van

      Rem                    La#m
pero ella ofrece siempre su fiel amistad.

Fa                  Dom             Rem
Ella siempre estará para hacerte sentir

                 La#m
Jamás te abandonará.
Siempre estará junto a ti.

Fa               Dom
Tus lágrimas secará

             Rem
si dejas que viva en ti.

              La#m
Y siempre te hará soñar.

                  Fa
La música vive en ti.



Solo (1:46)
1.-------------------------------------------------
2.--------------------------/10-/11----------------
3.-5/10\5---5/10\5---5/10\5---------12-----12/14-10
4.--------------------------------------14---------
5.-------------------------------------------------
6.-------------------------------------------------


1.---------------------------------------(HH)--------
2.----------------------13----------------13---------
3.----10-12-12/14-12-10----10-12/14-12-10----10-12-10
4.-12------------------------------------------------
5.---------------------------------------------------
6.---------------------------------------------------


1.-------------------------
2.13(16)13--10-11-13-11-10-
3.-------------------------
5.-------------------------
6.-------------------------


1.------------------------------
2.------------------------------
3.-12-10-9--------------------10
4.---------12-10-8----8-10-12---
5.-----------------12-----------
6.------------------------------



1.--------------------18-19(20)---18-17-15-17---
2.-18-20(22)-20-18-20-------------------------18
3.----------------------------------------------
4.----------------------------------------------
5.----------------------------------------------
6.----------------------------------------------


1.----------------------------------------------
2.-20-17-18--------------17(18)(17)-15----15----
3.----------19-----17-19---------------17----19-
4.--------------19------------------------------
5.----------------------------------------------
6.----------------------------------------------


1.-----------10------------------------------------
2.--------10----13-10------------------------20(22)
3.-12(14)-------------12-12(14)(12)-10----10-------
4.-------------------------------------12----------
5.-------------------------------------------------
6.-------------------------------------------------


1.----------19(20)-17-15-----------------------------
2.-20-18-20--------------18----18-20-20(22)-20(22)-20
3.--------------------------19-----------------------
4.---------------------------------------------------
5.---------------------------------------------------
6.---------------------------------------------------


1.----------------10------------------------------
2.-18----------------13-10------------------------
3.----19---12(14)----------12-10-------10---------
4.-------------------------------12-10---------7-5
5.------------------------------------------/8----
6.------------------------------------------------


1.--------------------10-12-12(13)(12)-10-------
2.-----------------10---------------------13-10-
3.----------12(14)------------------------------
4.----5-3---------------------------------------
5.-/7-------------------------------------------
6.----------------------------------------------


1.------------------------------------------------
2.-13(15)(13)-10-13(15)-13------------------------
3.-----------------------------------------------5
4.-----------------------------------3-5(7)(5)-7--
5.---------------------------3-3-3-3--------------
6.------------------------------------------------


1.----------------
2.----------------
3.----------------
4.---5(7)(5)-3----
5.----------------
6.----------------

No hay comentarios:

Publicar un comentario