.

banners

Acordes de...Cómo un tifón. Zenobia.


  Que Zenobia es la banda nacional con más proyección actualmente no lo digo yo, lo demuestra el incesante movimiento de la banda, sin parar de dar conciertos dentro y fuera de nuestras fronteras, regrabación de temas, edición de discos, etc., y creo, que de todo ello tiene mucha culpa la incorporación de Victor de Andrés, la madurez  de la voz de Jorge Berceo y la evolución y experiencia de la banda en general.
  Aprovechando la salida de su disco de baladas y las numerosas peticiones de sus tablaturas, os quiero dejar unos momentos en tablatura fácil y unos acordes del tema "Cómo un tifón".
  Un saludo.
  TabsFácil.







Cómo un tifón. Zenobia.


1.----------------------------
2.----------------------------
3.-------2-2h3--3-3-3h2h0h3---
4.-----5--------------------5-
5.---5------------------------
6.-3--------------------------

1.----------------------------

2.----------------------------
3.-------2-3-3-3-3h2h0------5-
4.-----5------------------5---
5.---5------------------3-----
6.-3--------------------------


1.----------------------------

2.-------3-4-4-4-4h3----------
3.-----5-------------5--------
4.---5----------------------5-
5.-3----------------------5---
6.----------------------3-----


1.---------------------------------

2.-----------------------1-3-----3-
3.--3-3-3-3-3h2h0------2-----2-----
4.-----------------0-4---------4---
5.---------------------------------
6.----------------------------------...


Solm

Cómo un tifón arras mi vida

Solm                       Re#m

no te das cuenta que estoy aquí

Solm                     Re#m

doblegas todas mis esperanzas

Dom

¿No ves que ésta senda

                  Fa

te guía hasta el fin?

Solm

Sentí el calor de las mentiras

                              Re#m

que con tu aliento forjaste en mí

Solm                         Re#m

Has conseguido jugar con mi vida

Dom                      Fa

ahora debes marcharte lejos de aquí.

Re#m     Fa                La#m

Una vez más yo caigo ante ti

Re#m  Solm   Fa  Re   

no puedo huir ni resistir...

Solm

Ahora muero por ti mujer

Re#m                       Dom

tus labios me hicieron esclavo

             Solm

tomaste mi ser,

La#                        Fa

me engañaste con tus encantos

              Solm

y muero por ti mujer.

Re#m                        Fa         Solm

Creí todas tus mentiras, me hiciste creer

Re#m             Dom          Re

que me amabas, fuiste tan cruel...

Solm

Tus ojos negros marcaron mis días

                              Re#m

tus frios dedos tocaron mi corazón

Solm                          Re#m

con su latido rompieron las venas

Dom

de este alma sombría

Fa

esclava de tu pasión...


No puedo dar sentido a mi vida



sin marchitar la resignación



como una vez tu alma y la mía



latieron un día hechizados de amor...



Una vez más...



(2:45)

1.---------------------------------
2.---------------------------------
3.----------3----------3--3/-5h3h0-
4.------3-5---3/-5-3-5-------------
5.----5----------------------------
6.-/3------------------------------

1.----------------------------10---

2.-------------------------10----13
3.--3/-5h3h0------------12---------
4.-----------5-5-----12------------
5.----------------10---------------
6.---------------------------------


1.---------------------------------

2.-11-10-11-13---------------------
3.-------------15-14-17------------
4.----------------------15---------
5.-------------------------15h13-12
6.---------------------------------

1.----------------------

2.----------------------
3.----------------------
4.----------------------
5.----------15-/17-15---
6.-15-17-18-----------15-...


1 comentario:

  1. al final ya no suena bien, cuando te quedas solo en fa por todo un verso, mal :/

    ResponderEliminar