.

banners

Aprende a tocar... Xanandra. Mägo de Oz.

www.tabsfacil.es
Tablaturas fáciles para guitarra.
Xanandra. Mago de oz
















(Guitarra 1)
1.-------------------------------------------------
2.-------------------------------------------------
3.-------------------------------------------------
4.-5-----------5---------------------------8-------
5.-3-3-3-3-3-3-3-3-3-3-3-3---6-------------6---8---
6.---------------------------4-4-4-4-4-4-------6---


1.-------------------------------------------------
2.-------------------------------------------------
3.-------------------------------------------------
4.-5-----------5---------------------------8-------
5.-3-3-3-3-3-3-3-3-3-3-3-3---6-------------6---8---
6.---------------------------4-4-4-4-4-4-------6---


1.-------------------------------------------------
2.-------------------------------------------------
3.-------------------------------------------------
4.-5-----------5---------------------------8-------
5.-3-3-3-3-3-3-3-3-3-3-3-3---6-------------6---8---
6.---------------------------4-4-4-4-4-4-------6---


(2:39)
1.--------------------------------------------------
2.--------------------------------------------------
3.--------8----8-10(12)-8-10---8--------------------
4.---/10----10-------------------10-8---------------
5.------------------------------------10-8-6-8-8(10)
6.--------------------------------------------------


1.--------------------------------------------------11-
2.----------11-------------------8--------8-11-8-11----
3.---10(12)----10(12)(10)-8-8-10---8-8-10--------------
4.-----------------------------------------------------
5.-----------------------------------------------------
6.-----------------------------------------------------


1.-14(15)-13-11h13---19(20)-19-18-16-------------------
2.-----------------------------------18----16----------
3.--------------------------------------17----17-15-17-
4.-----------------------------------------------------
5.-----------------------------------------------------
6.-----------------------------------------------------

No hay comentarios:

Publicar un comentario