.

banners

Aprende a tocar al estilo de...Plectrumelectrum. Prince & 3rd eye girl.

 
  Me pedíais algunos, algunos momentos en tablaturas fáciles del tema para poder empezar vosotros mismos a sacar pedacitos poco a poco y disfrutar con la banda que se ha montado Prince. Pues bien creo que con lo que os dejo podéis comenzar cuando queráis a degustar con vuestras propias manos este interesante tema que fuera adelanto de su trabajo con Plectrumelectrum..
   Un saludo.
   TabsFácil.








        Plectrumelectrum. Prince and 3rd eye girl.

1.-----------------------------------------------------
2.---7---------------------------------------7---------
3.---7-----7---7-10h7---7---10---7-----------7-----7---
4.-----7h9---9--------9-----10---7-------------7h9---9-
5.----------------------------------8-8h7-5------------
6.-----------------------------------------------------

1.------------------------
2.------------------------
3.---7-10h7---7---9---7---
4.----------9-----9---7---
5.------------------------
6.-----------------------. . .


(0:27)
1.---------------------------------------------------
2.-/12(13)(12)-10------------------------------------
3.----------------12-10/---5-7---5-7---5-7---7---7-/-
4.---------------------------------------------------
5.---------------------------------------------------
6.---------------------------------------------------

1.--------------------------------------------------
2.-12(13)(12)-10------------------------------------
3.---------------12-12h10/---------7h9-9(10)(9)h7---
4.-------------------------x/--7h9----------------9-
5.--------------------------------------------------
6.--------------------------------------------------. . .

No hay comentarios:

Publicar un comentario