.

banners

Acordes y Tablatura fácil de... If the story is over. Stratovarius.

  Poco que añadir con respecto a  este temazo del penúltimo trabajo de Stratovarius. "If the story is over" un baladón se mire por donde se mire del que quiero compartir con vosotros unos momentos tanto en tablaturas fáciles como sus acordes.
  Un saludo.
  TabsFácil.







If the story is over. Stratovarius.



1.------------------------------------------
2.-------5-------------4--------------7-----
3.-----6---6---6-----6---6---6------6---6--6
4.---6-------6-----6-------6------6------6--
5.-4-------------4--------------4-----------
6.------------------------------------------


1.------------------------------------------
2.-------5-------------5--------------------
3.-----6---6--6------6--6----------6-8-6----
4.---6------6------7------7------7-------7--
5.-4-------------7----------7---7----------7
6.--------------5-------------5-------------


1.----------2-----------------------
2.----------------------------4-----
3.-------2----2-------------4---4---
4.-----4--------4---------6-------6-
5.---4------------4-----6-----------
6.-2------------------4-------------...



(1:20)estribillo.


SiM Reb          LaM      Lab        LaM

     All empty words and all rhymes will fade


Reb             MiM                  SiM
As the light of last candle flickers away 


Reb               LaM        MiM        SiM
If the story is over, this chapter my last 


LaM                   Solbm       Reb
Let it be my best one, let it be my own...

No hay comentarios:

Publicar un comentario