.

banners

Acordes de...Through oblivion. In flames.

  Descubrí este grupo relativamente poco para el tiempo que llevan editando discos y quedé gratamente sorprendido, su sonido me cautivó desde el primer momento, aunque reconozco que sólo he escuchado sus dos últimas obras, donde dicen los seguidores que se han vuelto algo blandos...
  El caso que os quiero dejar unos momentos en tablatura del tema con sus acordes "Through oblivion" perteneciente al último trabajo de la banda. In flames en Acordes y Tablaturas fáciles para guitarra.
  Un saludo.
  TabsFácil.









Through oblivion. In flames.

1.------------------------------------------
2.------------------------------------------
3.------------------------------------------
4.-------------------------8-6--------------
5.-------8-8-8-6-6-6-9-9-9----9-8------8-8-8
6.-6-6-6--------------------------6-6-6-----

1.---------------------------------------
2.---------------------------------------
3.---------------------------------------
4.---------------------------------------
5.-6-6-6---9-9-9---8-8-8---6-6-6---------
6.---------------------------------6-6-6-. . .


Fam
False affection took the best of me

             Do#m
Deep inside, the absent mind

                   Fam
Denial and hypocrisy

All this the same
                      Do#m
To do this we part our ways

Fam                La#m          Do#m   Fam
My destination, my mission, my intuition

          La#m        Do#m
so close I feel it changing me

Sol#m        Re#m                 Fam
Suddenly I know, I have to let it go

Do#m
All that's been lost, all that's been won

        Fam
Now I feel right before me

                          Do#m
Intentions are pure, I'm out of reach


Fam                La#m          Do#m   Fam
My destination, my mission, my intuition

          La#m        Do#m
So close I feel it changing me

Sol#m              Re#m
I might dare to believe

             Do#m   Fam
And I have wings (I have)

Sol#m                           Dom
Nothing and everything at the same time

Do#m        Fam     Sol#m   Re#m
Oh, a brighter sun



(2:05)

1.-----------------------------------------
2.-----------------------------------------
3.-----------------------------------------
4.-5h3-5h3-5h3-5h3-5h3-6h3-6h3-6h3-6h3-6h3-
5.-----------------------------------------
6.-----------------------------------------





Fam
Save me from my fears
               Do#m
And darkest thought of her
                 Fam
Carry me through times
             Do#m
Through oblivion . . .






No hay comentarios:

Publicar un comentario en la entrada