.

banners

Acordes y tablatura fácil de... A prueba de ti. Malú.

  

  De su álbum "Sí" publicado en 2013 hoy extraigo este tema para aprender a tocarlo con sus acordes y tablatura. "A prueba de ti" lleva por título y espero como siempre que paséis un buen rato aprendiendo a tocarlo.
  Más Acordes de Malú:

   - Quiero.

  Un saludo.
 TabsFácil.









A prueba de ti. Malú


1.--------13--------13-------13-------13-------13-----
2.----10---------10-------10-------10-------10----/13-
3.-12---------12-------12-------12-------12-----------
4.----------------------------------------------------
5.----------------------------------------------------
6.----------------------------------------------------

1.--------13--------13-------13-------13-------13-----
2.----10---------10-------10-------10-------10----/13-
3.-12---------12-------12-------12-------12-----------
4.----------------------------------------------------
5.----------------------------------------------------
6.----------------------------------------------------


Fa       La#m     Fa       La#m

Fa
  Antes de que empieces a decirme

                                          La#m
que te estás muriendo por volver a estar conmigo.

Solm                     Fa
Date cuenta que has perdido.

Fa
Desde que no estás me siento libre,
No voy a cambiarlo todo una vez mas

La#m
por nada.

Solm
No te atrevas a pedirlo.

LaM               Rem
Lo siento mucho, no tengo más para ti.

La#m            Do
Si me tuviste, me dejaste ir…

Fa
Si te amé, ya no sé

La#m
ni tu nombre

                     Rem
ya no existes en mi piel
Si lloré

Do
no recuerdo como fue.

Fa
Y si te amé
pudo ser

          La#m
Un momento de locura.

         Rem
Y esta vez
No hay después

Do                             Fa
Descubrí que estoy a prueba de ti…




(2:39 solo)
1.-------------------------------------------13/15-13-
2.---------13---------13---10-13-13-11-11-10----------
3.-12h(14)----12h(14)---------------------------------
4.----------------------------------------------------
5.----------------------------------------------------
6.----------------------------------------------------

                      (A partir de aquí improvisado…)
1.-15/17-19(20)---HH--------------------------------
2.--------------20-22-------------------------------
3.--------------------------------------------------
4.---------------------------------12-10-12-10------
5.----------------------12-10-8----------------10-8-
6.------------------------------10------------------

1.---------------------------------------------------
2.---------------------------------------------------
3.-12-10-12-10--------14-12-14-12--------17-14-17-14-
4.-------------12-10---------------15-12-------------
5.---------------------------------------------------
6.---------------------------------------------------

1.--------------------------------19(20)---
2.----------18-15-18-15--------18----------
3.----------------------17-14--------------
4.---17-15---------------------------------
5.-----------------------------------------
6.-----------------------------------------

No hay comentarios:

Publicar un comentario en la entrada