.

banners

Acordes de... Despierta. Bunbury.

  En tablaturas fáciles rescatamos otro disco del 2013. En este caso se trata de "Palosanto" de Bunbury. Y de este disco extraemos "Despierta" del que os dejo unos momentos y sus acordes correspondientes.
  Un saludo.
  Tabsfácil.










Despierta. Bunbury 


1.-----------------------------------------------
2.-----------13h15--------13h15----------13h15---
3.---12h14----------12h14---------12h14----------
4.-----------------------------------------------
5.-----------------------------------------------
6.-----------------------------------------------

1.----------------15h17---------
2.---------13h15--------13h15---
3.---12h14----------------------
4.------------------------------
5.------------------------------
6.------------------------------


 Rem                       Sol
   Despierta, todo ha cambiado

Fa             Sol            Rem
Nada es como habíamos imaginado.

Rem                        Sol
  Esperas, a que alguien mueva,

Fa                 Sol         Rem
Pase lo que pase no quedes fuera.

   Rem                  Dom                  La#m
   Hoy te sientes distinto, porque eres distinto.

                           Fa         Dom
   Lo que fue siempre lo mismo y cambió.


     Rem                  La#m                 Fa
   Permanecía oculto en ti y ahora está tan claro.

                    Dom               Rem
   Es un día soleado y no hay confusión.

Rem           Rem            Labm  LaM
  Despierta, despierta de una vez.

Rem           Rem            Labm  LaM
   Despierta, despierta de una vez.

No hay comentarios:

Publicar un comentario