.

banners

Waiting for the thunder. Helloween.

Tablaturas fáciles para guitarra.
www.tabsfacil.es











Waiting for the thunder. Helloween. 



(2:29)


1.------------------------------------------|
2.---6\11/6-7-9---6\11/6-7-9-14-------------|
3.-6------------6---------------14-14(16)(14)
4.------------------------------------------|
5.------------------------------------------|
6.------------------------------------------|



1.----------------------------------------|
2.-14-12----------------------------------|
3.-------15h13h11-15-11---16--------------|
4.-----------------------------------6-8-9
5.----------------------------/6-8-9------|
6.----------------------------------------|



1.-----------------------------------------|
2.-----------------------------------------|
3.--------------------------------10-11-13-|
4.--------8-9-11----------9-11-13----------|
5.-8-9-11---------9-11-13------------------|
6.-----------------------------------------|

1.--------------|
2.-11-12-14--11-|
3.--------------|
4.--------------|
5.--------------|
6.--------------|



No hay comentarios:

Publicar un comentario