.

banners

Tabs fácil de...Tribal. Jeff Beck.




  En TabsFácil no podía faltar un grande como Jeff Beck,  del que hemos elegido para la tablatura fácil de hoy su último trabajo en el  mercado, se trata de grabaciones en directo de su última gira y algún que otro tema inédito, en uno de los cuáles, en concreto éste que os presento ("Tribal"), colabora a la voz Ruth Lorenzo, conocida entre otras cosas por su participación en Eurovisión el año pasado.
   Os quiero dejar un pequeño momento en tablatura, en concreto el perteneciente al riff de inicio.
   Un saludo.
   Tabsfácil.





Tribal. Jeff Beck.

1.--------------------------------------|
2.--------------------------------------|
3.---------6-7-6--------6-6-------------|
4.-------8-------8--6-8-----6-8---------|
5.--------------------------------------|
6.---5/6------------------------6-6-6-6-|

1.--------------------------------------|

2.--------------------------------------|
3.----6-7-6--------6-6----------------6-|
4.--8-------8--6-8-----6-8----------8---|
5.--------------------------------------|
6.-------------------------6-6-6-6------|

1.---------------------|

2.---------------------|
3.--7-6--------6-6-----|
4.------8--6-8-----6-8-|
5.---------------------|
6.-------------------...

No hay comentarios:

Publicar un comentario