.

banners

Tabs fácil de...The red and the black. Iron maiden.

  En tabs fáciles vamos desgranando poco a poco el contenido de "El libro de las sombras" que como todos ya sabéis es el título del último trabajo discográfico de Iron maiden. Un disco repleto de riffs épicos al más puro estilo maiden, un estilo que hizo y sigue haciendo escuela.
   Hoy le toca el turno al tema "The red and the black". Os dejo unos momentos en tablatura que espero que os gusten y disfrutéis.
  Un saludo.
  Tabs Fácil.



The red and the black. Iron maiden.

(1:15)
1.--------5-------7-8-5-7-------5------
2.--5-7-8---8-7-5---------5-7-8---8-7-5
3.-------------------------------------
4.-------------------------------------
5.-------------------------------------
6.-------------------------------------

1.----5------------5-------7-8-5-7-----
2.--8---7-8--5-7-8---8-7-5----------5-7
3.-------------------------------------
4.-------------------------------------
5.-------------------------------------
6.-------------------------------------

1.----5----------5-----
2.--8---8-7-5--8---7-8-
3.---------------------
4.---------------------
5.---------------------
6.---------------------...


(1:46)
1.-------------------------------------
2.--/5--5-3---3-5--5-3---3-5--5-3---3-5
3.----------4----------4----------4----
4.-------------------------------------
5.-------------------------------------
6.-------------------------------------

1.--3-2--------------------------------
2.------3-3----3-5--5-3---3-5--5-3---3-
3.-----------4----------4----------4---
4.-------------------------------------
5.-------------------------------------
6.-------------------------------------

1.---------------3-2-----------
2.--5--5-3---3-5-----3-3---3-5-
3.---------4-------------4-----
4.-----------------------------
5.-----------------------------
6.---------------------------...

(2:55)
1.--5-5--3-5--5-3--5-3--7--5-5-3--5-5-
2.------------------------------------
3.------------------------------------
4.------------------------------------
5.------------------------------------
6.------------------------------------

1.--5-10-8-7--5-5--3-5--5-3--5-3--7---
2.------------------------------------
3.------------------------------------
4.------------------------------------
5.------------------------------------
6.------------------------------------

1.--5-5-3--5-5--5-10-8-7-
2.-----------------------
3.-----------------------
4.-----------------------
5.-----------------------
6.----------------------...


(0:30)
1.------------------------------------
2.------------------------------------
3.------------------------------------
4.----2-2-2--0-0-0--5-5-5-0--2-2-2--0-
5.-//---------------------------------
6.------------------------------------

1.-----------------------------------
2.-----------------------------------
3.-------------2---------------------
4.--0-0--5-5-5---2-2-2--0-0-0--5-5-5-
5.-----------------------------------
6.-----------------------------------

1.--------
2.--------
3.--2-2-2-
4.--------
5.--------
6.--------...

(9:40)
1.------------------------------------
2.------------------------------------
3.--9-11-12--9-9-9--9-9--11-12-14--11-
4.------------------------------------
5.------------------------------------
6.------------------------------------

1.------------------------------------
2.---------------8-10-12--8-8-8--8-8--
3.--11-11--11-11----------------------
4.------------------------------------
5.------------------------------------
6.------------------------------------

1.--------8--10-8----8----------------
2.--10-12---------12---12-10--12-10-8-
3.------------------------------------
4.------------------------------------
5.------------------------------------
6.------------------------------------

1.------------------------------------
2.------------------------------------
3.--9-11-12--9-9-9--9-9--11-12-14--11-
4.------------------------------------
5.------------------------------------
6.------------------------------------

1.----------------------
2.----------------------
3.--11-11--11-11--9-7-9-
4.----------------------
5.----------------------
6.---------------------...


No hay comentarios:

Publicar un comentario en la entrada