.

banners

Tabs fácil de...The man of sorrows. Iron Maiden.


  En Tabs fáciles "The man of sorrows"  uno de esos temas en los que cuesta encontrar a Iron Maiden, sino fuera por la voz del inconfundible Bruce. Un tema con mucha guitarra y mucho solo pero falto de esos ritmos trepidantes, quizás en el estribillo es donde más maiden podemos encontrar, y no estoy diciendo que sea un mal tema...
  Os dejo unos momentos en tablatura fácil del inicio del tema para que practiquéis y disfrutéis.
  Un saludo.
 TabsFácil.





The man of sorrows. Iron maiden.

1.-----------------------------------
2.------------8----------------------
3.-------8-10---10-8--7h8h7h8h7--/15-
4.--8/10-----------------------------
5.-----------------------------------
6.-----------------------------------

1.-----------------------------------
2.--13-15-15(16)(15)-13-13-13--15-16-
3.-----------------------------------
4.-----------------------------------
5.-----------------------------------
6.-----------------------------------


1.----15---------------------------
2.-18----16--15h16h15--16-15-------
3.---------------------------17-15-
4.---------------------------------
5.---------------------------------

6.-------------------------------...

No hay comentarios:

Publicar un comentario en la entrada