.

banners

Tablatura fácil de...Tears of a clown. Iron maiden.


"Tears of a clown" me parece un buen tema, pero no me parece un tema de Iron maiden, me suena más bien a British lion, igual que en el disco de debut del bajista de la dama de hierro en solitario había algunos temas que me sonaban a Iron maiden. Sea como fuere, es cuestión de gustos claro está, aquí os dejo un momento en tablatura fácil del tema que espero que os guste y disfrutéis.
  Un saludo.
  TabsFácil.



Tears of a clown. Iron maiden.

1.----------------------------------
2.---------1----------3-------------
3.---------2----------3-------------
4.--2------2----5-----5---------7-5-
5.--0-0-0----0--3-3-3---3--3-3--5-3-
6.-------------------------1-1------

1.-------------------------------
2.-------------------------------
3.-------------------------------
4.--2--5-----7--5--7--2----------
5.--0--3--3--5--3--5--0--0-3-5---
6.--------1--------------------3-


1.---------------------------------------
2.---------------------------------1-3---
3.-----------------------------2-0-----2-
4.---------------------------------------
5.------5--------5--------5--------------
6.--3-3---3--3-3---3--3-3---3----------...





No hay comentarios:

Publicar un comentario en la entrada