.

banners

Tabs fácil de...Shadows of the valley. Iron maiden.


 
   El segundo corte del segundo disco de los dos que dan forma al último trabajo de Iron maiden se llama "Shadows of the valley" y es del que hoy os quiero dejar unos momentos en tablatura.
    Como siempre os digo, espero que os guste como ha quedado y que lo disfrutéis, tanto si lo utilizáis para aprender, para divertiros o porque no para sacar vosotros vuestra propia tablatura o cover.
   Un saludo.
   TabsFácil.




Shadows of the valley. Iron maiden.

Guit 1.
1.----------------------------------|
2.----------------------------------|
3.----------------------------------|
4.----------------------------------|
5.---2----5---7-----2----5---7----2-|
6.---0----3---5-----0----3---5----0-|

Guit 2.

1.--12-0-0-7-0-0-8-0-0-10-0-0-7-0-8-0
2.-----------------------------------|
3.-----------------------------------|
4.-----------------------------------|
5.-----------------------------------|
6.-----------------------------------|

1.--12-0-0-7-0-0-8-0-0-10-0-0-3-5-12-
2.-----------------------------------|
3.-----------------------------------|
4.-----------------------------------|
5.-----------------------------------|
6.--------------------------------...

(0:56)
1.-----------------------------------|
2.-------3-3-----------------3-3-----|
3.-------2-2-----------------2-2-----|
4.------------5-5--7-7------------3-2
5.--2-2-------3-3--5-5--2-2-------3-0
6.--0-0-----------------0-0----------|

1.-----------------------------------|
2.-------3-3-------------------------|
3.-------2-2-------------------------|
4.------------5-5--7-7--4-4--4-4-4-4-|
5.--2-2-------3-3--5-5--2-2--2-2-2-2-|
6.--0-0------------------------------|

1.----------------------------------|
2.-------------------------3-3------|
3.-------------------------2-2------|
4.--4-4-5-5--5-5-7-7------------5-5-|
5.--2-2-3-3--3-3-5-5--2-2-------3-3-|
6.--------------------0-0-----------|

1.------------------------------------|
2.------------3-3------------3-3------|
3.------------2-2------------2-2------|
4.--7-7------------5-2------------5-5-|
5.--5-5--2-2-------3-0--2-2-------3-3-|
6.-------0-0------------0-0-----------|

1.-----------------------------------|
2.------------3-3--------------------|
3.------------2-2--------------------|
4.--7-7------------5-2--4-4--4-4-4-4-|
5.--5-5--2-2-------3-0--2-2--2-2-2-2-|
6.-------0-0-------------------------|


1.-----------------------------|
2.-----------------------------|
3.-----------------------------|
4.--4-4-5-5--5-5-5-5-7--5--4-4-|
5.--2-2-3-3--3-3-3-3-5--3--2-2-|
6.-----------------------------...


(3:31)
1.-------------------------------------|
2.-------------------------------------|
3.--4-5-7-5-4---4-5-4--4-5-7-5-4---4-5-|
4.------------7------------------7-----|
5.-------------------------------------|
6.-------------------------------------|

1.------------------------------------|
2.------------------------------------|
3.---------4-5-7-5-4---4-5-4--4-5-7-5-|
4.--5-4--------------7----------------|
5.------7-----------------------------|
6.------------------------------------|


1.---------------------------5-------|
2.-----------------5-7-8-7-5---8-7-5-|
3.--4---2-4--------------------------|
4.----5-----5-4-2--------------------|
5.-----------------------------------|
6.-----------------------------------|


1.--------|
2.----7-5-|
3.--7-----|
4.--------|
5.--------|

6.--------...

No hay comentarios:

Publicar un comentario en la entrada