.

banners

Tabs fácil de...Los chicos quieren rock. Rata blanca.



  Otro riff del último trabajo de los argentinos Rata blanca, en este caso el perteneciente al inicio del tema "Los chicos quieren rock" un tema en el que como en todos, el gran Walter Giardino hace de las suyas con su ya mítico estilo de tocar la guitarra.
   Como siempre os digo, espero que lo disfrutéis y os ayude en vuestro aprendizaje o en vuestra diversión que, con esta banda, está asegurada.
  Un saludo.
  TabsFácil.


Los chicos quieren rock. Rata blanca.


1.-------------------------------------
2.-------------------------------------
3.---------------------------6---------
4.--8------6-8-----6-6h7-6h8---8-6-----
5.--6--6-9-----6-9-----------------9-6-
6.-------------------------------------

1.-------------------------------------
2.-------------------------------------
3.-------------------------------------
4.------6-8-----6-6h7-6h8-7-6----------
5.--6-9-----6-9---------------9-6--6-9-
6.-------------------------------------

1.-------------------------------------
2.-------------------------------------
3.--------------------6----------------
4.--6-8-----6-6h7-6h8---8-6----------6-
5.------6-9-----------------9-6--6-9---
6.-------------------------------------

1.-------------------------------------
2.-------------------------------------
3.--------------------6----------------
4.--8-----6-6-8-6-----4--8---8-----6---
5.----6-9---------9------6---6-6-9---9-
6.-------------------------------------

1.-----------------
2.-----------------
3.-----------------
4.-----8-----6-----
5.--6--6-6-9---9-6-

6.-----------------...

No hay comentarios:

Publicar un comentario