.

banners

Tabs fácil de...Lords of summer. Metallica.


  TabsFácil de Metallica en concreto de su tema "Lords of summer" mientras esperamos ansisos el próximo trabajo de los venerados metaleros, que se están haciendo de rogar...







The lords of summer. Metallica.

1.-----------------------------------------
2.-----------------------------------------
3.-----------------------------------------
4.-----------------------------------------
5.-5-4-4--5-4-4--5-4-4--5-2-2--5-4-4--5-4-4
6.-3-2-2--3-2-2--3-2-2--3-0-0--3-2-2--3-2-2

1.------------------------

2.------------------------
3.------------------------
4.------------------------
5.--5-4-4--5-2-2--5-4-4---
6.--3-2-2--3-0-0--3-2-2---...

(4:36)

1.-------------------------------------
2.-------------------------------------
3.-------------------------------------
4.-------------------------------------
5.--4---4---4---4---4-----0----------4-
6.--2-0-2-0-2-0-2-0-2-0h2---2h0h2--0-2-...

(4:48)

1.------------------------------------------
2.------------------------------------------
3.-----------(HH)-----------/5--------------
4.-/7--4-6-7--4---/7--4-6-7-----/7--4-6-7--4
5.------------------------------------------
6.------------------------------------------

1.-------------------------------------------

2.-------------------------------------------
3.-----------6--------------------------6--/5
4.-/7--4-6-7----/7--4-6-7--4--/7--4-6-7------
5.-------------------------------------------
6.-------------------------------------------

1.------------------------------------------

2.---------------5----------------5---------
3.-2-4-5-2--/5-2---5-2--/5-2-4-5-2--5-4-2---
4.---------------------------------------3-2
5.------------------------------------------
6.--------------------------------------...

No hay comentarios:

Publicar un comentario en la entrada