.

banners

Tabs Fácil de...Days of rock 'n' roll. Europe.

  "Days of rock 'n' roll" uno de los sencillos perteneciente al regreso de Europe, aquí en Tabs Fáciles. Un tema divertido con el que la practica se hace más amena.
  Un saludo.
  TabsFácil.




Days of rock 'n' roll. Europe.

  (Guitarra 1)
1.---------------------------------------
2.---------------------------------------
3.---------------------------------------
4.---------------------------------------
5.-9---7--7-7--7-7--7-7--3--3-3--3-3--3-3
6.-7---5--5-5--5-5--5-5--1--1-1--1-1--1-1

  (Guitarra 2)

1.-----------------------------------
2.----------------------8--8--8--6-5-
3.-----9-9-9--9-10-9-----------------
4.-----------------------------------
5.-----------------------------------
6.-----------------------------------

   (Guitarra 1)
1.--------------------------
2.--------------------------
3.--------------------------
4.-5--5-5--5-5--5-5---7-----
5.-3--3-3--3-3--3-3---5---7-
6.------------------------5-

   (Guitarra 2)

1.-----------------------------
2.-----------------------5-----
3.-9-9-9--9-10-9-----/7----7-5-
4.-----------------------------
5.-----------------------------
6.-----------------------------

  (0:33)(Guitarra 1)
1.--------------------------------------
2.--------------------------------------
3.--------------------------------------
4.------7-------------------7-----------
5.-5----5----3----7----5----5----3----2-
6.-3---------1----5----3---------1----0-

  (1:46)(Guitarra 2)
1.----------------------------------------
2.-8(10)(8)(10)-8---8---------------------
3.----------------9---9--7-5-7(9)(7)-7h5--
4.---------------------------------------7
5.----------------------------------------
6.----------------------------------------

1.---------------------------------5-----
2.-8(10)-8(10)(8)--8-------------5---5-8-
3.---------------9---9--7-5-7(9)---------
4.---------------------------------------
5.---------------------------------------

6.------------------------------------...


No hay comentarios:

Publicar un comentario