.

banners

Tabs fácil de... Tan lejos de aquel sueño. Rata Blanca.

 Después de 7 años de ausencia, los argentinos Rata Blanca volvían con "Tormenta eléctrica" su 10º álbum, si no recuerdo mal. Un disco cargado de buenos temas y guitarras muy ochenteras, muy al estilo del gran Walter Giardino, como no podía ser de otra manera.
   Uno de ellos es este "Tan lejos de aquel sueño" del cual os quiero dejar el riff en tablatura del inicio del tema, un riff, como ya dijera anteriormente muy de los ochenta y que a mi personalmente me ha gustado mucho.
   Un saludo.
   TabsFácil.


Tan lejos de aquel sueño. Rata Blanca.

1.----------------------------------
2.----------------------------------
3.----------------------------------
4.-----6-6---6-6---6-6---6-6--------
5.-//--4-4/--4-4/--4-4/--4-4-----7-4
6.---------------------------4-7----

1.-----------------------------------
2.-----------------------------------
3.-----------------------------------
4.--------------------------------6-6
5.------4---4-4-----7-4--2--------4-4
6.--4-7---7-----4-7--------4-2-0-----


1.-----------------------------------
2.-----------------------------------
3.-----------------------------------
4.-----------------------------------
5.------7-4------4---4-4------7-4--2-
6.--4-7------4-7---7------4-7--------


1.------------------
2.------------------
3.------------------
4.---------4-6--9-8-
5.---------2-4--7-6-
6.--4-2-0-----------...


No hay comentarios:

Publicar un comentario