.

banners

Tabs fácil de... Prayers/Triangles. Deftones.

  Aprende a tocar con la Tablatura fácil del tema adelanto de lo que será el próximo trabajo de Deftones, de título "Gore" y que tiene prevista la salida para el 8 de Abril.
   Después de 4 años los seguidores de la banda ya pueden escuchar el primer adelanto "Prayers/Triangles" y cómo no aprender a tocar la guitarra y pasar un buen rato con unos momentos en tablatura desde www.tabsfácil.es.
  Un saludo.
  TabsFácil.




Prayers/Triangles. Deftones.

     (0:15)

1.-8--8-------------------------------|
2.------9--9-----9--------------------|
3.-----------10----10-----------------|
4.--------------------10--11-10-11-10-|
5.------------------------------------|
6.------------------------------------|...

   (1:52)

1.------------------------------------|
2.------------------------------------|
3.------------------------------------|
4.------------------------------------|
5.-8--6--10--8--6--10--8--6--10--8--6-|
6.-6--4---8--6--4---8--6--4---8--6--4-|

1.---------------------------------|
2.---------------------------------|
3.---------------------------------|
4.---------------------------------|
5.-10--3--3-3--3--3-3--3--3-3-4--3-|
6.--8--1--1-1--1--1-1--1--1-1-2--1-|...

   (2:40)

1.-8-8---8---------------8--8---8-----------|
2.-----9---9-9----9----------9---9-9----9---|
3.-------------10--------------------10-----|
4.------------------11--------------------11
5.------------------------------------------|
6.------------------------------------------|...


No hay comentarios:

Publicar un comentario en la entrada