.

banners

Tabs fácil de... Engaña a tu novio. Bürdel King.

  Otra Tablatura fácil del primer disco de Bürdel King, la banda irreverente del batería de Mägo de oz.
  "Engaña a tu novio" en TabsFácil.
  Un saludo.




Engaña a tu novio. Burdel King.


1.--------------------------
2.--------------------------
3.---2-----------2----------
4.---2-------7---2----------
5.---0---5---5---0---5---5--
6.-------3-----------3------

(0:10)
1.------------------------------------------------
2.------------------------------------------------
3.-7-7h6---7h6---7h6------2---7h6------7-7h6---7h6
4.-7-7-7---7-7---7-7------2---7-7------7-7-7---7-7
5.------------------------0--------5--------------
6.-------------------0-2-----------3--------------

1.-------------------------
2.------------------/8-8h7-
3.---7h6-7-----------------
4.---7-7-----5---7---------
5.-----------3---5---------
6.-------------------------

(0:19)
1.---------------------------------------------------
2.-----------------------------------15(16)(15)-13---
3.-12(14)-+6 veces-12(14)(12)----------------------14
4.----------------------------10-12------------------
5.---------------------------------------------------
6.---------------------------------------------------

1.-------------------------------------
2.-------------------------------------
3.-12(14)-+5 veces---16(17)---18(19)---
4.-------------------------------------
5.-------------------------------------
6.-------------------------------------

(0:29)
1.---------------------------------------------------
2.---------------------------------------------------
3.---------------------------------------------------
4.---------------------------------------------------
5.-------0-0---2h3h2h0---2-0-----------0-0---2h3h2---
6.-2-0-2---------------------2---2-0-2---------------

1.-----------------
2.-----------------
3.-----------------
4.-----------------
5.-2-2---2-2---2-2-
6.-0-0---0-0---0-0-

(0:39)       “Yo soy un soñador…
1.--------------------------------------------------------
2.--------------------------------------------------------
3.--------------------------------------------------------
4.--------------------------------------------------------
5.-------------------------0-0------------------------2-0
6.-2-2muchas veces---2h0h2-----2-2muchas veces---2h0h2----

(0:49)
1.-----------5-5-------------5-7-
2.---7---7h5--------7----7h5-----
3.-------------------------------
4.-------------------------------
5.-------------------------------
6.------------------------------- 

(0:57)    …”Soy un
1.------------------------------------------
2.------------------------------------------
3.-----------------2------------------------
4.-2-----------6---0---4---2---4----4-4-4-4-
5.-0---2---4---4-------2---0---2----2-2-2-2-
6.-----0---2--------------------------------

(1:52)      …”Aunque yo nunca
1.---------------------------------
2.----------------------------5-3--
3.------------2-------------------6
4.-2----------0---2-------7--------
5.-0---2---4------0---2---5--------
6.-----0---2----------0------------


1.---------------------------------------
2.---------------------------------------
3.---------------------------------------
4.-2-----------6---2---4---2-------------
5.-0---2---4---4---0---2---0---2-2-2-2---
6.-----0---2-------------------0-0-0-0---

No hay comentarios:

Publicar un comentario