.

banners

Tabs de... First Kill. Amon Amarth.

  Exclusiva en TabsFácil,  momentos en tablatura de "First kill" adelanto de lo que será el próximo disco de Amon Amarth que llevará por título "Jomsviking" y saldrá a últimos de Marzo.
  Para todos los amantes del metal épico, repleto de himnos y riffs melodicos aquí tenéis para que aprendáis y disfrutéis tocando la guitarra con vuestros grupos preferidos y las últimas novedades del momento.
  Un saludo.
  TabsFácil.











First kill. Amon Amarth.

1.------------------------------|
2.------------------------------|
3.------------------------------|
4.------------------------------|
5.-2-2--2-2-2--2-2--2-2-2h4h5-2-|
6.------------------------------|

1.------------------------------|
2.------------------------------|
3.------------------------------|
4.------------------------------|
5.------------------4-4-4h5h7-4-|
6.-3-3--3-3-3--3-3--------------|

1.------------------------------|
2.------------------------------|
3.------------------------------|
4.------------------------------|
5.------------------0-0-0h2h4-0-|
6.-5-5--5-5-5--5-5--------------|

1.------------------------------|
2.------------------------------|
3.------------------------------|
4.------------------------------|
5.------------------------------|
6.-3-3-3-3-3-3-3-3--2-2-2-2-2-2-|

1.--------------------|
2.--------------------|
3.--------------------|
4.------------------4-|
5.-4-4-4-4-2-2-2-2--2-|
6.--------------------|

1.------------------------------|
2.------------------------------|
3.------------------------------|
4.------------------------------|
5.-2-2--2-2-2--2-2--2-2-2h4h5-2-|
6.------------------------------|

1.------------------------------|
2.------------------------------|
3.------------------------------|
4.------------------------------|
5.------------------4-4-4h5h7-4-|
6.-3-3--3-3-3--3-3--------------|

1.------------------------------|
2.------------------------------|
3.------------------------------|
4.------------------------------|
5.------------------0-0-0h2h4-0-|
6.-5-5--5-5-5--5-5--------------|

1.------------------------------|
2.------------------------------|
3.------------------------------|
4.------------------------------|
5.------------------------------|
6.-3-3-3-3-3-3-3-3--2-2-2-2-2-2-|

1.------------------------------|
2.------------------------------|
3.------------------------------|
4.-----------4---4--------------|
5.-9-----9---2---2--4--5---5--4-|
6.----9--7----------2--3---3--2-|


1.--------------------------------|
2.-7-0-0-5-0-0-3-0-0-5-0-0-3-0-2-0
3.--------------------------------|
4.--------------------------------|
5.--------------------------------|
6.--------------------------------|

1.--------------------------------|
2.-7-0-0-5-0-0-3-0-0-5-0-0-3-0-2-0
3.--------------------------------|
4.--------------------------------|
5.--------------------------------|
6.--------------------------------|

1.--------------------------------|
2.-7-0-0-5-0-0-3-0-0-5-0-0-3-0-2-0
3.--------------------------------|
4.--------------------------------|
5.--------------------------------|
6.--------------------------------|

1.--------------------------------|
2.-7-0-0-5-0-0-3-0-0-5-0-0-3-0-2-0
3.--------------------------------|
4.--------------------------------|
5.--------------------------------|
6.--------------------------------|

1.--------------------------------|
2.-7-0-0-5-0-0-3-0-0-5-0-0-3-0-2-0
3.--------------------------------|
4.--------------------------------|
5.--------------------------------|
6.-----------------------------...


(2:02)

1.---------------------------------|
2.---------------------------------|
3.-4-4-4-4-4-4---4-6-7-7-7-7-7-7---|
4.-------------4-----------------7-|
5.---------------------------------|
6.---------------------------------|

1.---------------------------------|
2.---------------------------------|
3.-7-9-6-6-6-6-6-------------9-9-9-|
4.---------------7-7-7-7-7-7-------|
5.---------------------------------|
6.---------------------------------|

1.---------------------------------|
2.---------------------------------|
3.-9-9-9-7-6-7-6----4-4-4-4-4-4----|
4.---------------7--------------4--|
5.---------------------------------|
6.---------------------------------|

1.---------------------------------|
2.---------------------------------|
3.-4-6-7-7-7-7-7-7----7-6-6-6-6-6-6
4.-----------------7---------------|
5.---------------------------------|
6.---------------------------------|

1.---------------------------------|
2.---------------------------------|
3.--------------4-4-4-4-4-7-6------|
4.-7-7-7-7-7-7----------------7-7-7
5.---------------------------------|
6.---------------------------------|

1.-----------------------|
2.-----------------------|
3.------------4-4-4-4-4-4
4.-7-7-7--4-7------------|
5.-----------------------|
6.-----------------------|...


(3:28)

1.-------------------------------------|
2.-/7--5--3--2---------------/7-5--/8-7|
3.-------------4--2--4--6-7------------|
4.-------------------------------------|
5.-------------------------------------|
6.-------------------------------------|

1.-------------------------------------|
2.------------/7--5--3--2--------------|
3.-/9-7--/11--------------4--2--4--6-7-|
4.-------------------------------------|
5.-------------------------------------|
6.-------------------------------------|

1.-----------------------------------------|
2.-/7-5--/8-7-------------------7--5-7-8-10
3.------------/9-7--/11---6-7-9------------|
4.-----------------------------------------|
5.-----------------------------------------|
6.-----------------------------------------|

No hay comentarios:

Publicar un comentario