.

banners

Tablatura fácil de...Serenata Inmortale.

  Un clásico donde se precie, casi al más puro estilo de "Smoke on the water" o "Starway to heaven" es esta "Serenata Inmortale"
  Quién no la ha tocado o versioneado alguna vez? Tú no? Pues aquí te la dejo en tablatura fácil para que te diviertas.
  Un saludo.
  TabsFácil.









Immediate music. Serenata immortale

1.--------------------------------------------
2.--------------------------------------------
3./9-/9-/11---9-9-11-9-11-9-11(13)-9-8-9-8----
4.-----------------------------------------9-6
5.--------------------------------------------
6.--------------------------------------------

1.----------------------------12----12-15(16)-12---
2.----------------12-14h12-14----14--------------12
3.---------9---13----------------------------------
4.----9-11-----------------------------------------
5.-11----------------------------------------------
6.-------------------------------------------------

1.----12-14------------------------------------------
2.-14-------/16--------14-16-16-/17---16-17-17-/19---
3.--------------16-----------------------------------
4.-----------------18--------------------------------
5.---------------------------------------------------
6.---------------------------------------------------

1.-------------------17-19---20(21)-17-16h17h16---
2.-17-19-19-/21---21----------------------------19
3.------------------------------------------------
4.------------------------------------------------
5.------------------------------------------------
6.------------------------------------------------

1.----------------------14-12----12-----------------
2.-19(21)(21)(19)---/12-------16----16-14---12h14h12
3.--------------------------------------------------
4.--------------------------------------------------
5.--------------------------------------------------
6.--------------------------------------------------

1.------------------------------------------------------
2.-10h12h10----------------------------------------12---
3.----------13-11-11(13)(11)---9h11h9----9----9-11----11
4.------------------------------------11---11-----------
5.------------------------------------------------------
6.------------------------------------------------------

No hay comentarios:

Publicar un comentario