.

banners

Tablatura fácil de...My god-given right. Helloween.



  Aprende a tocar en TabsFácil al estilo Helloween con uno de los temas de su último trabajo, en concreto el que daba título al disco "My god-given right".
  Disfruta y aprende todo en uno en TabsFácil.
  Un saludo.





My god-given right. Helloween.



  (Guitarra 2)
1.---------/5---------------------------
2.-----5-6----8-5----------------5-6-/8-
3.---7-------------------------5--------
4.--------------------------------------
5.--------------------------------------
6.--------------------------------------

    (Guitarra 1)
1.--------------------------------------
2.--------------------------------------
3.--------------------------------------
4.---7------10--9--------------5------10
5.---5------8---7-7-7-7-7-7-7--3-------8
6.--------------------------------------

  (Guitarra 2)

1.--------------------------------/5----
2.---6-5----------------------5-6----8-5
3.-------7------------------7-----------
4.---------7----------------------------
5.--------------------------------------
6.--------------------------------------

  (Guitarra 1)

1.--------------------------------------
2.--------------------------------------
3.--------------------------------------
4.-------7------------------7------10--9
5.-------5-5-5-5-5-5-5-5-5--5------8---7
6.--------------------------------------


  (Guitarra 2)

1.--------------------------------
2.------------------5-6-/8-6-5----
3.----------------5------------7--
4.--------------------------------
5.--------------------------------
6.--------------------------------...

  (Guitarra 1)

1.--------------------------------
2.--------------------------------
3.--------------------------------
4.---------------5-----10-------7-
5.---7-7-7-7-7-7-3-----8--------5-
6.--------------------------------...

  (0:16)

1.-------------------------------------
2.---3---3---3---3---3---3---3---3-----
3.-----2---2---2---2---3---3---3---3---
4.-------------------------------------
5.-------------------------------------
6.-------------------------------------

1.-------------------------------------

2.---3---3---3---3---5---5---5---5-----
3.-----3---3---3---3---5---5---5---5---
4.-------------------------------------
5.-------------------------------------
6.-------------------------------------...

 (1:12)

1.-------------------------------------
2.---3---3---3---3---3---3---3---3-----
3.-----2---2---2---2---3---3---3---3---
4.-------------------------------------
5.-------------------------------------
6.-------------------------------------

1.-------------------------------------

2.---3---3---3---3---5---5-------------
3.-----3---3---3---3---5---5-----------
4.-------------------------------------
5.------------------------------//--1-1
6.-------------------------------------


1.-------------------------------------

2.-------------------------------------
3.-------------------------------------
4.-------------------------------------
5.---1-1-1-1-1-1-1-1-1-1--3-3-3-3-3-3-3
6.-------------------------------------

1.-------------------------------------

2.-------------------------------------
3.-------------------------------------
4.---------------------3-3----------3-3
5.--3-3-3-3-3--5-5-5-5------5-5-5-5----
6.-------------------------------------

1.-------------------------------------

2.-------------------------------------
3.-------------------------------------
4.-------------------------------------
5.--1-1-1-1-1-1-1-1-1-1-3-3-3-3-3-3-3-3
6.-------------------------------------...

No hay comentarios:

Publicar un comentario en la entrada