.

banners

Tablatura fácil de...Ésta noche huele a rock n' roll. Bürdel King.


 
 Hace mi tiempo mi nariz
no para de dormir
en tu vientre
mientras yo
bebo de tí

Tu sonrisa vertical
no para de reir
de esos labios aprendí...



Ésta noche huele a rock and roll. Bürdel King.


1.------------------------------------------------
2.-------------------------1-1--------------------
3.------2-2-0---2---2-2-0--------2-2-0---2------0-
4.------------2-----------2------------2---0-2-3--
5.—7-/--------------------------------------------
6.-5-/--------------------------------------------

1.------------------------------------------------
2.-----------------------------------1-1----------
3.-----0---1-2---2-2-0---2---2-2-0--------2-2-0---
4.-3-2---2-------------2-----------2------------2-
5.------------------------------------------------
6.------------------------------------------------

1.------------------------------------------------
2.---------------------------------------1-1------
3.-2-1-0--------------2-2-0---2---2-2-0------2-2-0
4.-------2-1-0--------------2-----------2---------
5.-------------3-0--------------------------------
6.------------------------------------------------

1.------------------------------------------------
2.------------------------------------------------
3.---2--------0-----0---1-2---2-2-0---2---2-2-0---
4.-2----0-2-3---3-2---2-------------2------------2
5.------------------------------------------------
6.------------------------------------------------

1.------------------------------------------------
2.-1-1--------------------------------------------
3.-----2-2-0----2--------0-----0---1-2---2-2-0---2
4.-----------2-----0-2-3---3-2---2-------------2—-
5.------------------------------------------------
6.------------------------------------------------

1.------------------------------------------------
2.---------1-1------------------------------------
3.-2-2-0--------2-2-0----2-1-0--------------------
4.-------2------------2--------2-1-0--------------
5.-----------------------------------3-5----------
6.------------------------------------------------

No hay comentarios:

Publicar un comentario