.

banners

Tablatura fácil de...El ocaso de los dioses. Alquimia.


  En TabsFácil siempre habrá un hueco para un guitarrista de la talla de Alberto Rionda sea cuál sea el proyecto en el que se embarque.
  Alquimia se llama su nueva andadura y hace poco presentaban "Indomable" título del disco y de uno de sus cortes, en concreto "El ocaso de los dioses" os quiero dejar hoy unos momentos en tablatura que espero que os guste y disfrutéis.
  Un saludo.
  TabsFácil.





El ocaso de los dioses. Alquimia.


(2:22)

1.--------------------------------------|
2.--------------------------------------|
3.-10(12)-10-----10(12)(10)----12-------|
4.-----------13-------------13----13-10-|
5.--------------------------------------|
6.--------------------------------------|

1.--------------------------------------|
2.--------------------------------------|
3.-------------10--13h12h10-----12-10---|
4.----10-12-13--------------13--------13
5.-13-----------------------------------|
6.--------------------------------------|

1.--------------------------------------|
2.-----------------13-15-16--15h16h15h13
3.-------11(12)-12----------------------|
4.-15-13--------------------------------|
5.--------------------------------------|
6.--------------------------------------|

1.--------------------------------------|
2.--------------------------------------|
3.-15-13-12h13h15h13h12----12-----------|
4.----------------------15----15(16)(15)
5.--------------------------------------|
6.--------------------------------------|

1.--------------------------------------|
2.-----------------------------18(20)---|
3.--------------------12h13h15--------19
4.-13-15-13--10h12h13-------------------|
5.--------------------------------------|
6.--------------------------------------|

1.--------------------------------------|
2.--------------------------------------|
3.-20-19-17-19--20-19-17--13--------15--|
4.----------------------------17-18----18
5.--------------------------------------|
6.--------------------------------------|

1.----------------------------------|
2.----------------------------------|
3.-15--------------12--13h12h10-----|
4.----18h17h15--17---------------12-|
5.----------------------------------|
6.----------------------------------|...

No hay comentarios:

Publicar un comentario