.

banners

Tablatura fácil de... A savior in the square. Dream Theater.

  Aprende a tocar la guitarra o disfruta y pasa un buen rato con uno de los temas pertenecientes al último trabajo de Dream Theater.
  Se trata de un momento en tablatura de "A savior in the square".
  Un saludo.
  Tabs Fácil.

A savior in the square. Dream Theater.


       (0:30)

1.-----------------------------|
2.-----------------------------|
3.---------9/11-9--/9--/11/9h7-
4.------7----------------------|
5.-/7h9------------------------|
6.-----------------------------|

1.-----------------------------|
2.-----------------10--8h7--8h7
3.--------9(11)(9)-------------|
4.------7----------------------|
5.-/7h9------------------------|
6.-----------------------------|


1.--------------------------------|
2.--------/8h7--8h7---------------|
3.--------------------------------|
4.-9---5-------------7--/12-------|
5.--------------------------10-9-/
6.--------------------------------|


1.--------------------------------|
2.--------------------------------|
3.-----------21(23)(21)--19(21)(19)
4.--------19----------------------|
5.-/19h21-------------------------|
6.--------------------------------|


1.--------------------------------|
2.-------------------------22-20h19
3.-----------21(23)(21)-19--------|
4.--------19----------------------|
5.-/19h21-------------------------|
6.--------------------------------|


1.----------------------------------|
2.-20h19---------------8h7--8h7-----|
3.-----------19-16--------------12/14
4.--------21-------17---------------|
5.----------------------------------|
6.----------------------------------|


1.-10-------------------------------|
2.----------------------------------|
3.----12-11----------12--11-9-------|
4.----------12-14-16----------12--/12
5.----------------------------------|
6.----------------------------------|


1.----------------------------------|
2.----------------------15-12-------|
3.-11-12-11-12-11-12/14-------14-11-|
4.----------------------------------|
5.----------------------------------|
6.----------------------------------|


1.----------------------------------|
2.----------------------------------|
3.------------------------7--9-11/12
4.-14-12----------------------------|
5.-------14-12--5/7-5-/7------------|
6.----------------------------------|

1.---------------------------|
2.-------------------------3-
3.-11-9-----4-5-4-2----------|
4.------12----------5-2-/4---|
5.---------------------------|
6.---------------------------|



No hay comentarios:

Publicar un comentario en la entrada