.

banners

Tablatura fácil de... Olatz. Bürdel King.


 www.tabsfacil.es
Tablaturas fáciles para guitarra.  








Olatz. Bürdel King

1.------------------------------------------
2.------------------------------------------
3.------------------------------------------
4.------------------------------------------
5.---5/7/5----------------------------------
6.---------7-6-5---3-0---3-0---3-5---0-3-5--

1.------------------------------------------
2.--------------------------------6-7-6-----
3.--------------------------------7-7-7-----
4.----------------------------7-------------
5.---5/7/5--------------------7-------------
6.---------7-6-5---3-0---3-0----------------

1.------------------------------------------
2.------------------------------------------
3.------------------------------------------
4.------------------------------------------
5.---5/7/5----------------------------------
6.---------7-6-5---3-0---3-0---3-5---0-3-5--

1.----------------------------------------------------
2.----------------------------------------------------
3.----------------------------------0-2-2-0-2-0-------
4.--------------------0-2-------0-2-------------2-0-2-
5.------------------------2-0-2-----------------------
6.-0-3-5-7---0-3-5-7----------------------------------


1.-----------------------------------------------------
2.-----------------------------------------------------
3.-----------------------------------------------------
4.-4-4-4-----2---------------4-4-4-----2---------------
5.-2-2-2-0-2-0---0---0-2-0---2-2-2-0-2-0---/5-5-4---5-4
6.--------------3---3------3---------------------------

1.---------------------------------
2.---------------------------------
3.--------------2-3-2-0-2-0--------
4.-4-4-4-----2--------------2-0-2--
5.-2-2-2-0-2-0---------------------
6.---------------------------------

  0:27   Entre gramos....
1.---------------------------------------------------
2.---------------------------------------------------
3.---------------------------------------------------
4.---------------------------------------------------
5.-2-2---------------2-2---------2-2---2-2---1/2/1---
6.-0-0---0---0-0-0---0-0---0-3---0-0---0-0---------3-

1.----------------------------------------------
2.----------------------------------------------
3.----------------------------------------------
4.----------------------------------------------
5.-1-/2/1-----2-2---------------2-2-------2-2-2-
6.--------3---0-0---0---0-0-0---0-0---0-3-0-0-0-

1.--------------------
2.--------------------
3.-/9-7---------------
4.------/9-8----------
5.-----------/12-10-7-
6.--------------------
0:41   Su sonrisa...
1.-----------------------------------------------------
2.-----------------------------------------------------
3.-----------------------------------------------------
4.-5----------------------------5----------------------
5.-3---/7-5---/7---2------------3---/7-5---/7---2------
6.-----------------0-0-3-0-3-0------------------0-0-3-0

1.-------------------------------------------------------
2.-------------------------------------------------------
3.-------------------------------------------------------
4.----------5-----------------------------2-------4---4-4
5.----------3---/7-5---/7---2-------------0---0-1-2---2-2
6.-3-5-3-0------------------0-0-3-0-3-5-3----------------

0:57   Su nombre....
1.-------3---3---2------------------------
2.-------3---3---3-------/3-2---3-2-------
3.-------0---0---2---2--------2-----2-0---
4.---2---0-------0---2--------------------
5.---2---2-----------0--------------------
6.---0---3--------------------------------

1.-------3---3---2------------------------
2.-------3---3---3-------/3-2---3-2-------
3.-------0---0---2---2--------2-----2-0---
4.---2---0-------0---2--------------------
5.---2---2-----------0--------------------
6.---0---3--------------------------------


1.-------3---3---2---3----------------------
2.-------3---3---3---3----------------------
3.-------0---0---2---0----------------------
4.---2---0-------0---0----------------------
5.---2---2-----------2---/3-2---3-2-------2-
6.---0---3-----------3--------3-----3-2---0-

2:05
1.-----------------------------------------------------
2.-----------------------------------------------------
3.------------------------14(16)(14)-------------------
4.----14-16-16(17)(16)-14-------------16(17)(16)-14-16-
5.-14--------------------------------------------------
6.-----------------------------------------------------

1.-----------------------------------------------------
2.---------------------------------------------15------
3.--------------------------------------14(16)---------
4.--------12-14-----14-16-16(17)(16)-14----------------
5.-13-14---------14------------------------------------
6.-----------------------------------------------------

1.------------------------------------------------------
2.-15h17h15---------------------------------------------
3.----------14h15h14------------------------------------
4.-------------------17-14----14h16h14------14-16-16(17)
5.-------------------------17------------14-------------
6.------------------------------------------------------

1.-----------------------------------------------------
2.---------15(17)15------------------------------------
3.-----------------------------------------------------
4.-(16)-14-----------14(15)(14)-12---------------------
5.---------------------------------14-12-14---12-12-14-
6.-----------------------------------------------------

1.--------------------------------------------------
2.-----------------------------------------------/12
3.----12/14---------10/12---------5/7------12-14----
4.-14-------14---12-------12---9-------/14----------
5.--------------------------------------------------
6.--------------------------------------------------

1.----------------------------------
2.----------------------------------
3.----(H)------12/14-12---19(21)-19-
4.-12(14)(12)-----------------------
5.----------------------------------
6.----------------------------------

1.------------------------------------------------
2.-----------------------------------------3-/5---
3.---------2/4/2------------------2/4/2---------4-
4.---2-4-5-------4-5-4-2----2-4-5--------4--------
5.-2----------------------2-----------------------
6.------------------------------------------------

1.--------------------------------------------------
2.--------------------------------------------------
3.---------2/4/2----------------2/4-/5-2-2/4--------
4.---2-4-5-------4-5-4-2----4-5--------------5-4-2--
5.-2----------------------2-------------------------
6.--------------------------------------------------

1.---------------------------------------------------
2.-----------10/12/10------------------------10/12/10
3.---9-11-12----------11-12-11-9-----9-11-12---------
4.-9-------------------------------9-----------------
5.---------------------------------------------------
6.---------------------------------------------------

1.----10/12--------------------------------------
2.----------12--------------10/12/10-------------
3.-11---------------9-11-12----------11-12-11-9--
4.----------------9------------------------------
5.-----------------------------------------------
6.-----------------------------------------------

1.------------------------------------
2.---------10/12-/13-10-10/12---------
3.---11-12--------------------12-11-9-
4.-9----------------------------------
5.------------------------------------
6.------------------------------------

1.---------------------------------------------
2.---------------------------------------------
3.-7h9--------------------7h9------------------
4.-----7h9---------5----------7h9---------5h7--
5.---------7---5h7---7------------7---5h7------
6.---------------------------------------------

1.---------------------------------------------
2.---------------------------------------------
3.-7h9-----------------------------------------
4.-----7h9---------5h7-------------------------
5.---------7---5h7---------5h7-----------------
6.---------------------5h7-----0-2-3-2-0-0-3-0-

1.--------------------------------------------------
2.--------------------------------------------------
3.--------------------------------------------------
4.-0h2-------------------7---0h2--------------------
5.-----0h2---2---2-2-2---5-------0h2---2---2-2-2---5
6.-----------0---0-0-0-----------------0---0-0-0---3

1.------------------------------------------
2.------------------------------------------
3.------------------------------------------
4.-0h2-------------------7------------------
5.-----0h2---2---2-2-2---5---2---2-2---5---2
6.-----------0---0-0-0-------0---0-0---3---0

1.----------------------------------------------------
2.--------------/8-8---------------/8-8---------------
3.-/9-9-9-9-7h9-------/9-9-9-9-7h9------/9-9-9-9-7h9-
4.----------------------------------------------------
5.----------------------------------------------------
6.----------------------------------------------------

1.-------------------
2.-------------------
3.-/7-7---/9-9-9-7h9-
4.-------------------
5.-------------------
6.-------------------

1.--------------------------------------------10/12/10-
2.-----------10/12/10----------------------------------
3.---9-11-12--------------12-11-9-----9-11-12----------
4.-9-------------------14-----------9------------------
5.-----------------------------------------------------
6.-----------------------------------------------------

1.----10-12----------------10/12/10--------------------
2.----------12-----9-11-12-----------------------------
3.-14------------9-------------------14-12-11-9--------
4.-----------------------------------------------------
5.-----------------------------------------------------
6.-----------------------------------------------------

1.--------10-12----10-----------------------------------
2.--------------12--------------------------------------
3.---9-11--------------12-11-9---14(16)-14(16)-14(16)---
4.-9----------------------------------------------------
5.------------------------------------------------------
6.------------------------------------------------------

1.-----------------------------------------------
2.-------------------------------------------3---
3.-14(16)-14(16)(16)(16)(14)h12------2/4/2-4---4-
4.------------------------------14---------------
5.-----------------------------------------------
6.-----------------------------------------------

1.------------------------------------------------------
2.----------------------10-12-11-10----10-11-12-11-10---
3.-2-0---(H(H)---0-2-4--------------12----------------12
4.------4-2-4-------------------------------------------
5.------------------------------------------------------
6.---------------------------------------------------

1.--------------------------10-----------------------
2.-10-12-11-10-----10-11-12----12-11-10-8-10-11-10-8-
3.-------------12------------------------------------
4.---------------------------------------------------
5.---------------------------------------------------
6.---------------------------------------------------

1.----------------------------------------------------
2.-10(11)(12)-(H)-------------------------------------
3.------------12-----9-8-7---------------(H)H)--------
4.-------------------------9-8-7------5-7-8h7h5---5---
5.-------------------------------10-7-----------7---7-
6.----------------------------------------------------


1.--------(H)-
2.---------5--
3.-------7----
4.---5h7------
5.-7----------
6.------------

(5:08)
1.---0                  
2.---0
3.---0
4.---2
5.----
6.----

No hay comentarios:

Publicar un comentario