.

banners

Tablatura fácil de... Escuchando al corazón. Ars Amandi.



 "Escuchando rock and roll 24 horas, el rockservatorio es, tu emisora". La de veces que habré escuchado el anuncio que grabaron para la emisora de radio, y, perdonarme los seguidores del grupo, no había caído hasta hace bien poquito de que se trataba de esta banda, para mí muy buena, con un estilo que particularmente me gusta mucho.
     Poco más tengo que añadir, sólo que no podía faltar en tu web de tablaturas para guitarra, Ars Amandi y su "Escuchando al corazón," espero que os guste y hasta la próxima. 
  Saludos.
  TabsFácil.







 Escuchando al corazon. Ars amandi



(Flauta)
1.-----------------------------------------------
2.-----------------------------------------------
3.-----------------7-7---7-----------------------
4.------------7-8----------10-8-----7-8-10-8-7---
5.-10-10---10-------------------8-8------------8-
6.-----------------------------------------------

1.------------------------------------------------
2.------------------------------------------------
3.----------------7-7---7-------------------------
4.------------7-8---------10-8------7-8-10-8-7----
5.-10-10---10-------------------8-8------------10-
6.------------------------------------------------

1.----------------
2.----------------
3.----------------
4.-7--------------
5.---10-8---------
6.----------------

1.-----------------------------------------------
2.-----------------------------------------------
3.-----------------7-7---7-----------------------
4.------------7-8----------10-8-----7-8-10-8-7---
5.-10-10---10-------------------8-8------------8-
6.-----------------------------------------------

1.------------------------------------------------
2.------------------------------------------------
3.----------------7-7---7-------------------------
4.------------7-8---------10-8------7-8-10-8-7----
5.-10-10---10-------------------8-8------------10-
6.------------------------------------------------

1.----------------
2.----------------
3.----------------
4.-7--------------
5.---10-8---10----
6.----------------


(guitarra acompañamiento)

1.---------------------------------------------
2.---------------------------------------------
3.---------------------------------------------
4.---------------------------------------------
5.-5---5-5---5-5---5-5---3---3-3---3-3---3-3---
6.-3---3-3---3-3---3-3---1---1-1---1-1---1-1---

1.---------------------------------
2.---------------------------------
3.---------------------------------
4.-----------------------7---8-----
5.-5---5-5---5-5---5-5---5---6---3-
6.-3---3-3---3-3---3-3-----------1-

1.---------------------------------------------
2.---------------------------------------------
3.---------------------------------------------
4.---------------------------------------------
5.-5---5-5---5-5---5-5---3---3-3---3-3---3-3---
6.-3---3-3---3-3---3-3---1---1-1---1-1---1-1---


1.--------------------------------------
2.--------------------------------------
3.--------------------------------------
4.-----------------------7---8-------5--
5.-5---5-5---5-5---5-5---5---6---3---3--
6.-3---3-3---3-3---3-3-----------1------


0:16     “He sentido…      0:29   “Un silencio…
1.----------------------------------------------
2.-----------3----------------------------------
3.-------------3-----(H)------------------------
4.---------5---------12-/---8--3------8---------
5.-5------------------------6--1---3--6---3---5-
6.-3----3--------------------------1------1---3-

1.-----------------------------
2.-----------------------------
3.---3---3---------------------
4.-5---5-----8---3-------------
5.-----------6---1---3---5---3-
6.-------------------1---3---1-


0:50     Las historias…        otro…
1.-------------------------------------------------
2.-------------------------------------------------
3.-------------------------------------------------
4.----3--------------3----------8--3------8---3----
5.-5--1---3--5---5---1--3---5---6--1---3--6---1---3
6.-3------1--3---3------1---3----------1----------1

1.-----------------------------
2.-----------------------------
3.---3---3---------------------
4.-----5-----8---3-------------
5.-----------6---1---3---5---3-
6.-------------------1---3---1-


1:16(estribillo)   Escuchando…
1.--------------------------------------------------
2.--------------------------------------------------
3.--------------------------------------------------
4.-----8--------------8-------------8----------8----
5.-8---6--8---3---8---6--5---3---8--6---8--3---6---3
6.-6------6---1---6------3---1---6------6--1-------1


1:36    Decidido…
1.---------------------------------------------
2.---------------------------------------------
3.---------------------------------------------
4.---------------------------------------------
5.-5---5-5---5-5---5-5---5-5---5-5---5-5---5-5-
6.-3---3-3---3-3---3-3---3-3---3-3---3-3---3-3-


                                             1:48
1.-----------------------------------------------
2.-----------------------------------------------
3.-------------5(7)(5)-3-------------------------
4.-3---------------------5-------3-----------5---
5.-1---3---5-----------------5---1---3---5-------
6.-----1---3-----------------3-------1---3-------


1.-------------------------------------------------
2.-------------------------------------------------
3.-------------------------3---3-------------------
4.-8--3-------8---------5---5-----8---3------------
5.-6--1---3---6--3---5------------6---1---3---5---3
6.--------1------1---3--------------------1---3---1


2:29 acompañamiento flauta
1.---------------------------------------------
2.---------------------------------------------
3.---------------------------------------------
4.---------------8-----------------------------
5.-5--3--3---5---6--5--5-5--5-5---5-5---3--3-3-
6.-3--1--1---3------3--3-3--3-3---3-3---1--1-1-

1.--------------------------------------------
2.-------------------------------------------
3.--------------------------------------------
4.-----------------------------------7---8----
5.-3-3---3-3---5---5-5---5-5---5-5---5---6---3
6.-1-1---1-1---3---3-3---3-3---3-3-----------1


2:41 acompañamiento solo
1.------------------------------------------
2.------------------------------------------
3.------------------------------------------
4.-8-----------8---3-------8-----------8----
5.-6---3---5---6---1---3---6---3---5---6---3
6.-----1---3-----------1-------1---3-------1


2:41 (solo)
1.------------------------------------------------
2.---------------------------8-10-11-10-8---------
3.----------------7/--7-8-10--------------10-8----
4.-/8-7-8-10-8-10------------------------------/8-
5.------------------------------------------------
6.------------------------------------------------

1.---------------------------------------------
2.---------------------------------------------
3.-------------7/--8---------------------------
4.-7-8-10-8-10-------12-10-8-12-10-8-----------
5.-----------------------------------12-10-8-10
6.---------------------------------------------


1.-10-8------------8-----------------------------
2.------11-10-8-10---11-10-8---------------------
3.---------------------------10-8-------8--------
4.--------------------------------12-10---12-10-8
5.-----------------------------------------------
6.-----------------------------------------------

1.----------------------
2.----------------------
3.----------------------
4.----------------------
5.-12-10-8-10-12-10---8-
6.--------------------6-

3:05   …el pasado
1.--------
2.--------
3.--------
4.-/8-----
5.-/6---3-
6.------1-

3:54              4:02
1.-----------------------
2.-----------------------
3.-----------------------
4.---------8---5---------
5.-5---3---6---3---3---5-
6.-3---1-----------1---3-

                  4:02
1.-----------------------
2.-----------------6---8-
3.-----------------------
4.-----------------------
5.-----------------------
6.-----------------------


    


No hay comentarios:

Publicar un comentario