.

banners

Stay Crazy. Helloween.

 Uno de los singles que  lanzaban los germanos Helloween de su reciente plástico "My god-Given right" un disco que contiene, como viene siendo habitual en ellos, grandes dosis de riff metálicos y melódicos, la delicia de cualquier aficionado ya no a la banda, sino al buen heavy metal.
    Os quiero dejar unos momentos en tablatura de uno de esos riff pertenecientes como no, al tema "Stay crazy" que espero que os guste y lo disfrutéis.
   Un saludo.
   TabsFácil.










Stay crazy. Helloween.

(0:08)

1.-----------------------------------------
2.-----------------------------------------
3.------5-7-7/10-9-7-5-3-2-3-/7------------
4.-3/5--------------------------5-3-5-5/7-5
5.-----------------------------------------
6.-----------------------------------------

1.------------------------------------

2.------------------------------------
3.------5-7-7/10-9-7-5-3-2-3-/7-------
4.-3/5--------------------------5-5/7-
5.------------------------------------
6.------------------------------------

(0:22)

1.------------------------------------
2.------------------------------------
3.----7-9-/12-11-9-7-5-4-5-7-2---2-5-2
4.--5--------------------------5------
5.------------------------------------
6.------------------------------------

1.------------------------------------
2.------------------------------------
3.----7-9-/12-11-9-7-5-4-5-7-2---2-5-2
4.--5--------------------------5------
5.------------------------------------
6.------------------------------------

1.------------
2.------------
3.------------
4.--7-7-7-7-7-
5.--5-5-5-5-5-
6.------------...

(0:58)"We wanna stay crazy...
1.------------------------------------
2.------------------------------------
3.------------------------------------
4.--------------5--5-5-5-5--8--8-8-8-8
5.--7--7-7-7-7--3--3-3-3-3--6--6-6-6-6
6.--5--5-5-5-5------------------------


1.-------------
2.-------------
3.-------------
4.--5--5-5-5-5-
5.--3--3-3-3-3-
6.-------------...

No hay comentarios:

Publicar un comentario