.

banners

Speed of light. Iron maiden.


   
  Este era  el primer adelanto de lo que sería el nuevo trabajo de la Dama de hierro, que como todos sabéis ya, llevará por título "The book of souls".
  "Speed of light" llevaba por título este adelanto y la verdad que se ha hizo esperar, pero por fin está aquí y, como fan de la banda, no podía esperar más para tener entre mis páginas una tablatura fácil de ellos, así que. ahí va. Espero que os guste y disfrutéis.
  Un saludo.
  Tabs Fácil.



Speed of light. Iron maiden.

1.---------------------------------
2.---------------------------------
3.--/12-10-------------------------
4.---------12-11-10----------10-11-
5.------------------13-10-13-------
6.---------------------------------

1.---------------------------------
2.---------------------------------
3.---------------------------------
4.--10----10---------10-11-10----10
5.-----13----13-10-8----------13---
6.---------------------------------

1.---------------------------------
2.---------------------------------
3.-----------------5h6h5--5---5h6h5
4.--------10--5-h8----------8------
5.--13-10--8-----------------------
6.---------------------------------


1.----------------------------
2.----------------------------
3.-----------6-5--5---5h6h5---
4.--8--5-5h8--------8-------8-
5.----------------------------
6.----------------------------...

(0:20)
1.----------------------------------
2.----------------------------------
3.--------6-5--5---5-6-5----------6-
4.--5-5h8--------8-------8--5-5h8---
5.----------------------------------
6.----------------------------------

1.-----------------
2.-----------------
3.--5--5---5-6-5---
4.-------8-------8-
5.-----------------
6.-----------------...

(0:31)
1.----------------------------------
2.----------------------------------
3.----9-9-9-7-----9-9-9-7-----9-9-9-
4.------------9-----------9---------
5.--7-----------7-----------7-------
6.----------------------------------

1.----------------------------------
2.----------------------------------
3.--7-----10-10-10-8------------6-5-
4.----9--------------9----5-5h8-----
5.------8--------------10-----------
6.----------------------------------

1.--------------
2.--------------
3.--5---5-6-5---
4.----8-------8-
5.--------------
6.-------------...

(3:23)
1.-------------------------------------
2.---/12---10-7------------------------
3.--------------9-7-----/7-6-------6-7-
4.------------------9-7------9-7-9-----
5.-------------------------------------
6.-------------------------------------

1.----------7-9-10-12--12-14-15--17-17(19)
2.-5--7-8-5------------------------------
3.---------------------------------------
4.---------------------------------------
5.---------------------------------------
6.---------------------------------------

1.----8-8-8-6-------------------------8
2.------------8---6----6-8-6-----------
3.--5-----------8----8-------8--5-5----
4.-------------------------------------
5.-------------------------------------
6.-------------------------------------

1.-8-6-8--8-10-11-10-8----8----8-8-8-6-
2.---------------------11--------------
3.---------------------------5---------
4.-------------------------------------
5.-------------------------------------
6.-------------------------------------

1.------------------------8-8-6-8--8-10
2.--8--6----6-8-6----------------------
3.---8----8-------8--5-5---------------
4.-------------------------------------
5.-------------------------------------
6.-------------------------------------

1.--11-10-8----8----10-10-10-8---------
2.----------11-----------------10----8-
3.----------------7---------------10---
4.-------------------------------------
5.-------------------------------------
6.-------------------------------------

1.---------------------10-10-8-10--10--
2.-----8-10-8--------------------------
3.--10--------10--7-7------------------
4.-------------------------------------
5.-------------------------------------
6.-------------------------------------

1.--12-13-12-10-----------10-10-10-8---
2.--------------13-15----------------10
3.---------------------7---------------
4.-------------------------------------
5.-------------------------------------
6.-------------------------------------

1.---------------------------10-10-8-10
2.-----8-----8-10-8--------------------
3.--10----10--------10--7-7------------
4.-------------------------------------
5.-------------------------------------
6.-------------------------------------

1.--10-12-13-12-10--------
2.-----------------13--15-
3.------------------------
4.------------------------
5.------------------------

6.------------------------

No hay comentarios:

Publicar un comentario