.

banners

Tabs fácil de...Shape shifter. Amon Amarth.



Tablaturas fáciles para guitarra.
www.tabsfacil.es









Shape shifter. Amon Amarth

1.------------------------------------------------------
2.------------------------------------------------------
3.------------------------------------------------------
4.------------------------------------------------------
5.-7-7-7-7-7---7-7-7-7-7-7-7---7-7-7-7-7-7-7---7-7-7-7-7
6.-5-5-5-5-5---5-5-5-5-5-5-5---5-5-5-5-5-5-5---5-5-5-5-5

1.-------------------------------------
2.-------------------------------------
3.-------------------------------------
4.-------------------------------------
5.-7-7---7-7-7-7-7-7-7---7-7-7-7-7-7-7-
6.-5-5---5-5-5-5-5-5-5---5-5-5-5-5-5-5-

1.--------------------------------------------------
2.--------------------------------------------------
3.--------------------------------------------------
4.-----2/3-2---2---3/5---2---7---/10-9-10---/3-2---7
5.-/---------3---3-------0--------------------------
6.--------------------------------------------------

1.---------------------
2.---------------------
3.---------------------
4.-/10-9---7---/3---/5-
5.---------------------
6.---------------------

(0:41)
1.-------------------------------------------------
2.-------------------------------------------------
3.-/5---/5-4-2-0-------------5---5-/7-5-2-4tr---2--
4.----2----------0h2tr---2h3---2------------------5
5.-------------------------------------------------
6.-------------------------------------------------

(1:41)
1.--------------------------------------------------
2.--------------------------------------------------
3.------5-7-5/4---4---------------------------------
4.----7---------5----2---2-3-2---2------------------
5.-/7--------------------------5---5-3-5-2-3-3/5-3-2
6.--------------------------------------------------

1.-------------
2.-------------
3.-------------
4.-----3/5-3-2-
5.-3-2---------
6.-------------

1.--------------------------------------------------
2.--------------------------------------------------
3.------5-7-5/4---4---------------------------------
4.----7---------5----2---2-3-2---2------------------
5.-/7--------------------------5---5-3-5-2-3-3/5-3-2
6.--------------------------------------------------

1.-------------
2.-------------
3.-------------
4.-----3/5-3-2-
5.-3-2---------
6.-------------

1.----------------------------------------------------
2.----------------------------------------------------
3.------5-7-5/4---4-----------------------------------
4.----7---------5----2---2-3-2-0-2-0----0-------------
5.-/7---------------------------------3----2-3-3/5-3-2
6.----------------------------------------------------

1.----------------------------------------------
2.----------------------------------------------
3.-------5----5-7-4-5---4-----------------------
4.---------5----------7---5-7-3-5---3----------7
5.-3-2----------------------------7---5-7-3-5---
6.----------------------------------------------

1.-----------------------------------------------------
2.-----------------------------------------------------
3.-----------------------------------------------------
4.-7-5-7-7---7-5-7-7---------------------------/7-5-7-7
5.-------------------7-/8\7-5-5---3-/8-8-7-7-5---------
6.-----------------------------------------------------



1.--------------------------------
2.--------------------------------
3.---/7-5-4-5----------5-5--------
4.------------7---5/7------5----7-
5.----------------------------7---
6.--------------------------------

No hay comentarios:

Publicar un comentario