.

banners

Tablatura fácil de...Rock 'n' roll band. Scorpions.


  Scorpions en Tabs Fácil no podía faltar de ninguna de las maneras. Aquí os dejo "Rock and roll band" perteneciente al último trabajo de la banda.
  Un saludo.
  TabsFácil.





Rock 'n' roll band. Scorpions.


1.--------------------------------------

2.--------------------------------------
3.--7----3----5---------7----3---5------
4.--5----1----3----7----5----1---3----7-
5.-----------------5------------------5-
6.--------------------------------------

1.----------------------------------------

2.----------------------------------------
3.--7----3----5---------7----3---5--------
4.--5----1----3----7----5----1---3----7-7-
5.-----------------5------------------5-5-
6.----------------------------------------

   (0:48)

1.---------------------------------------
2.---------------------------------------
3.---0--2--3--2--0--5---0--2--3--2--0----
4.---0--2--3--2--0--5---0--2--3--2--0--3-
5.-------------------------------------3-
6.---------------------------------------

1.---------------------------------------

2.---------------------------------------
3.---0--2--3--2--0--5---0--2--3--2--0----
4.---0--2--3--2--0--5---0--2--3--2--0--3-
5.-------------------------------------3-
6.---------------------------------------

1.---------------------------------------

2.---------------------------------------
3.---0--2--3--2--0--5---0--2--3--2--0----
4.---0--2--3--2--0--5---0--2--3--2--0--3-
5.-------------------------------------3-
6.---------------------------------------

1.---------------------------------------

2.---------------------------------------
3.---0--2--3--2--0--5---0--2--3--2--0----
4.---0--2--3--2--0--5---0--2--3--2--0--3-
5.-------------------------------------3-
6.---------------------------------------


  (2:20)
1.-----------------------------------------
2.---/11-11-11-11-11-11--/11-11-11-11-11-11
3.-----------------------------------------
4.-----------------------------------------
5.-----------------------------------------
6.-----------------------------------------


1.--13-11-10---------------------/15-13-11-
2.----------16(18)-16-15--13-15------------
3.-----------------------------------------
4.-----------------------------------------
5.-----------------------------------------
6.-----------------------------------------


1.-----------------------------------------
2.--13-15-13-10-----/11-11-11-11-11-11--/11
3.--------------10-------------------------
4.-----------------------------------------
5.-----------------------------------------
6.-----------------------------------------


1.-----------------13-11-10----------------
2.--11-11-11-11-11----------16(18)-16-15---
3.---------------------------------------15
4.-----------------------------------------
5.-----------------------------------------
6.-----------------------------------------


1.--18h17h15h18h17h15h18h17h15h18h17h15-
2.--------------------------------------
3.--------------------------------------
4.--------------------------------------
5.--------------------------------------
6.--------------------------------------


1.--20h18h17h20h18h17h20h18h17h20h18h17-
2.--------------------------------------
3.--------------------------------------
4.--------------------------------------
5.--------------------------------------
6.--------------------------------------


1.--17h15h13h17h15h13h17h15h13h17h15h13-
2.--------------------------------------
3.--------------------------------------
4.--------------------------------------
5.--------------------------------------
6.--------------------------------------


1.--20(22)-20-18-22-
2.------------------
3.------------------
4.------------------
5.------------------
6.------------------...

No hay comentarios:

Publicar un comentario