.

banners

Rock the blues away. AC/DC.

   Grandes e incombustibles estos AC/DC que hoy os presento con un momento en tablatura del tema "Rock the blues" perteneciente al último trabajo de la banda.
  Una Tabs fácil para ir familiarizándose con el sonido tan peculiar que ha convertido en una leyenda a su guitarrista.
  Un saludo.
  TabsFácil.




Rock the blues away. AC/DC.


1.------------------------------------
2.------------------------------------
3.------------------------------------
4.---5-5-5--7--5--5-5--5-5--5-5-------
5.-------------------------------5--3-
6.-------------------------------3--1-

1.---------------------------------------
2.---------------------------------------
3.---------------------------------------
4.---5-5-5--7--5--5-5--5-5--5-5--------5-
5.-------------------------------5--3--3-
6.-------------------------------3--1--...

No hay comentarios:

Publicar un comentario en la entrada