.

banners

Acordes y tablatura fácil de...Quiero oírte. Warcry.


Tablaturas fáciles para guitarra.
www.tabsfacil.es










 Quiero oirte. Warcry.


1.-----------------------
2.-----------------------
3.-----------------------
4.------------------6----
5.---7-6-4-6-4------4----
6.-------------7-4-------



(0:49)


Reb              La
… busco un reto donde pocos quedan ya

     Si                     Reb
una llama que jamás se apagará,

La                    Si                  Reb
una leyenda, solo un sueño, simplemente un rumor.

La                           Si               Reb
busco alguien con la fuerza necesaria en su interior.


Ven y muéstrate ante mí.

La                     Si                  Reb
Una leyenda, solo un sueño, simplemente un rumor.

La                      Si                      Reb
Busco alguien con la fuerza necesaria en su interior.

Reb             La             Si           Reb
Quiero oírte gritar sobre el resto de la gente,

Reb             La         Si           Reb
muéstrame la pasión que te hace diferente.



Y grita,

La                 Si                  Reb
yo soy mi rey, mi propia ley, soy mi futuro y mi presente,

La                      Si                           Sol#
llegué hasta aquí a decidir si tienes algo que ofrecerme.


Muéstramelo.



1.----------------------------------
2.----------------------------------
3.----------------------------------
4.-2-1-2-4-2-1-2-----2-1-2-4-2-1-2--
5.---------------4-----------------4
6.----------------------------------

No hay comentarios:

Publicar un comentario en la entrada