.

banners

Nabataea. Helloween.

Tablaturas fáciles para guitarra.
www.tabsfacil.es










Nabataea. Helloween (intro)


(intro).


1.------------------------------------
2.------------------------------------
3.-8-8-8-8---8-9---9-9-8-7---8-8-8-9--
4.------------------------------------
5.------------------------------------
6.------------------------------------

1.------------------------------------
2.-8-9-12-11--------------------------
3.------------8-8-8-8---8-9---9-9-8-7-
4.------------------------------------
5.------------------------------------
6.------------------------------------

1.--------------------------------------
2.----------11-12-12-12-11--9-11-11-11-9
3.-8-8-8-9------------------------------
4.--------------------------------------
5.--------------------------------------
6.--------------------------------------


1.-----------------
2.-8-9-9-9-8-------
3.-----------9---6-
4.-----------------
5.-----------------
6.-----------------...

No hay comentarios:

Publicar un comentario