.

banners

Acordes y tablatura fácil de...Mi tierra. Warcry.



  Tablaturas fáciles para guitarra.
  www.tabsfacil.es










 Mi tierra. Warcry. 


Do#-Do#m-Do#-Do#m. . .La-Fa#m-Do#m

Do#m           Sim-Sol#m-Sim-Do#m
Mi tierra tiene 

            Sim-Sol#m-Sim-Do#m
un rudo mar, 

               Sim-Sol#m-Sim-La
altas montañas 

                Fa#m    Mim-Re#m-Do#m
y un verde inmortal. 

Do#m           Sim-Sol#m-Sim-Do#m
Mi tierra tiene 

             Sim-Sol#m-Sim-Do#m
negro mineral, 

                Sim-Sol#m-Sim-La
orgullo infinito 

                 Fa#m-Sol#m-La-Sol#m
por nunca capitular.

                Fa#m               Do#m-Do#. . .
Me devora la pasión, entiende que es... 

en donde crecí mi niñez. 

            La            Fa#m           Do#m
fue entre barro, niebla, bosques y humedad. 

Si debo morir, pido a Dios, 

                 La        Fa#m           Sol#m
Sea un día de lluvia y mirando hacia el mar. 

        Sim                          Do#m
Y si el viento de la vida me ha de alejar,

        Sol#m     Sim                   Do#m-Do#-Do#m
al final cuando muera enterradme en mi hogar. 

Sol#           La       Fa#m      Sol#m  Do#m-Do#-Do#m
Me devora la pasión, entiende que es... 

en donde crecí, mi niñez. 

              La          Fa#m          Do#m
fue entre barro, niebla, bosques y humedad. . .

Solo (2:24)
1.-----------------------------------------------
2.-19(21)--------------------------19------------
3.--------20-21-18--18-20-18-21-18----18-21-18-20
4.-----------------------------------------------
5.-----------------------------------------------
6.-----------------------------------------------

1.------------------------------------------------
2.------------------------------------------------
3.-18-21--18h20--16h18--------------------------16
4.---------------------18h19--19h18h16---16(18)---
5.-------------------------------------19---------
6.------------------------------------------------

1.--------------------------------------------------
2.--------------------------------------------------
3.--------------------------------------------------
4.-16(18)(16)-14h16----16h18h16--14h16h14---14------
5.------------------19--------------------18---18-16
6.--------------------------------------------------


1.-------------------------------------------------
2.--------------------------------------------7----
3.------------1h2----1h2----2h4----4h6----6h8---8h9
4.-14-16-------------------------------------------
5.--------/4------4-------4-----6------7-----------

6.--------------------------------------------. . .

No hay comentarios:

Publicar un comentario