.

banners

Tabs fácil de...I’ll put a Stone on your cairn. Satriani.



 Una técnica increible sin duda, pero me quedo con la melodía, con ese feeling que transmite cualquiera de sus temas, sobre todo esos cortitos de duración, pero llenos de sentimiento.
   Después de ver varios covers que ya andan por ahí, mi tabs la verdad que se parece poco, pero creo que suena bastante bien, ni que decir tiene que donde pongo hammers en realidad es tirar de palanca o vibrato.
    Un saludo.
    TabsFácil.                                                   





I’ll put a Stone on your cairn. Satriani.



1.-------------------------------------------
2.-------------------------------------------
3.----6-6-------------/6---------------/10-11
4.-4-4----6-6-6-6\--/4---/4\6/4\6--8\6\4-----
5.-------------------------------------------
6.-------------------------------------------



1.-------------------------------------------
2.-------------------------------------------
3.-/13-15--13h15h13h15h13h15h13-/11-/13-11-13
4.-------------------------------------------
5.-------------------------------------------
6.-------------------------------------------



1.------------------------------------------
2.------------------------------------------
3.------6-6----------------6-6--11-11--13-13
4.-4-4------4-4-6-6--/4-4-------------------
5.------------------------------------------
6.------------------------------------------



1.-----------------------------------------
2.-----------------------------------------
3.-11h13--13/15--13h15h13h15h13--11--/13h11
4.-----------------------------------------
5.-----------------------------------------
6.-----------------------------------------



1.---------------------------------------
2.---------------------------------------
3.----------------------6h4h6-8-6--------
4.-/15-16--11/13/11--11-----------3/4\3-4
5.---------------------------------------
6.---------------------------------------



1.-------------------------------------------
2.-------------------------------------------
3.-11-13/15--18-13/15\13--15h13--15h13--11-11
4.-------------------------------------------
5.-------------------------------------------
6.-------------------------------------------

No hay comentarios:

Publicar un comentario