.

banners

Tablatura fácil de...Heroes. Helloween.


   Seguimos desgranando los riffs metaleros y melódicos del último disco de Helloween, que siguen ocupando las portadas de las revistas especializadas y el Top ventas de numerosas listas después de sus 30 años de carrera.
        En esta ocasión quisiera dejaros unos momentos en tablatura del tema que da inicio a este fabuloso álbum. "Heroes" se llama el corte y como siempre, espero que os guste y disfrutéis.
    Un saludo.
    TabsFácil.
    



Heroes. Helloween.

1.------------------------------------
2.------------------------------------
3.------------------------------------
4.------------------------------------
5.---6h3-5--6h3-5--5-5-5-5-5-5--6h3-5-
6.------------------------------------

1.------------------------------------

2.------------------------------------
3.------------------------------------
4.--------------7---------------------
5.--3--4--5--6--5--6h3-5--6h3-5--5-5-5
6.--1--2--3--4------------------------

1.---------------

2.---------------
3.---------------
4.---------------
5.--5-5-5--6h3-5-
6.---------------

1.------------------------------------

2.------------------------------------
3.------------------------------------
4.------------------------------------
5.---6h3-5--6h3-5--5-5-5-5-5-5--6h3-5-
6.------------------------------------

1.------------------------------------

2.------------------------------------
3.------------------------------------
4.--------------7---------------------
5.--3--4--5--6--5--6h3-5--6h3-5--5-5-5
6.--1--2--3--4------------------------

1.--------------------------

2.---------------------/8-5-
3.----------------/7-5------
4.--------------------------
5.--5-5-5--6h3-5------------
6.------------------------...

(2:24)

1.------------------------------------
2.------------------------------------
3.---14--12--9(10)(9)-------------14--
4.---------------------/12-14-15------
5.------------------------------------
6.------------------------------------

1.------------------------------------

2.-----------------12h10h8--6-8-10--6-
3.--/19-17-16--14---------------------
4.------------------------------------
5.------------------------------------
6.------------------------------------

1.------------------------------------

2.--8-10--5-6-8--5-6-8----------------
3.----------------------7-9-10--7-9-10
4.------------------------------------
5.------------------------------------
6.------------------------------------

1.------------------------------------

2.------------------------------------
3.--5-7-9--5-7-9--7-9-10--9-10-12--10-
4.------------------------------------
5.------------------------------------
6.------------------------------------

1.------------------------------

2.---------13(15)-15--13(15)-15-
3.--12-14-----------------------
4.------------------------------
5.------------------------------
6.------------------------------...

No hay comentarios:

Publicar un comentario en la entrada