.

banners

El jugador. Rata blanca.


Uno de los guitarristas más demandados en ésta, tu página de tablaturas para guitarra, Walter Giardino y su banda Rata blanca, todo un icono del heavy rock de habla hispana, no podían faltar en www.tabsfacil.es.
  De su último trabajo "Tormenta eléctrica" ya he publicado algunos momentos en tablatura de sus riffs y hoy quería, aunque pequeñito, añadir otro fragmento a mi pequeña colección. Se trata de un momento en tablatura de "El jugador", muy cortito pero que espero que os guste y disfrutéis.
  Un saludo.
  TabsFácil.

El jugador. Rata blanca.

  (0:15)
1.-----------------------------------
2.--11(12)--11(12)(11)-9-------------
3.-----------------------9--9-8------
4.------------------------------11-9-
5.-----------------------------------
6.-----------------------------------

1.-----------------------------------
2.-----------------------------------
3.-----8----------------------8------
4.--11---9--11-9-8-9--9-8-9-11--9-11-
5.-----------------------------------
6.-----------------------------------


1.----------------
2.----------------
3.--8-9----8-9-11-
4.------11--------
5.----------------
6.---------------...



No hay comentarios:

Publicar un comentario en la entrada