.

banners

Tabs fácil de...Deceiver of the gods. Amon Amarth.



Tablaturas fáciles para guitarra.
www.tabsfacil.es









Deceiver of the gods. Amon amarth.

Intro.

1.------------------------------------
2.------------------------------------
3.------------------------------------
4.---2-4/6-4-2-4h2-1-----2/4-2-1-2h1--
5.-4-----------------2-4-------------4
6.------------------------------------



(2:25)

1.----------------------------------------------------
2.----------------------------------------------------
3.----------------------------------------------------
4.-11---11-13-14---11-13-14---11---11-13-14---11-13-14
5.----------------------------------------------------
6.----------------------------------------------------


1.--------------------------------------------------
2.--------------------------------------------------
3.--------------------------------------------------
4.-----11-13-14---11-13-14-13---11-13-14-13-11----11
5.-11------------------------------------------14---
6.--------------------------------------------------





(solo)

1.----------------------------------------------
2.----------------------------------------------
3.-/13-------13-13-11-9-11-9-11-----/11-------11
4.-----13-14--------------------13------11-13---
5.----------------------------------------------
6.----------------------------------------------



1.----------------------------------------------
2.----------------------------------------------
3.-13-11-9----9----13-11-9----------------/13---
4.---------13---11---------13-11-9----11------14
5.---------------------------------12-----------
6.----------------------------------------------



1.--------------------------------------------------
2.--------------------------------17(19)-17-16-17---
3.-11-13------13/14\13-------13-------------------18
4.-------14------------16-14------------------------
5.--------------------------------------------------

6.--------------------------------------------------

No hay comentarios:

Publicar un comentario en la entrada