.

banners

Creatures in heaven. Helloween.

 
  Tablatura fácil de "Creatures in heaven" perteneciente al último trabajo de los germanos Helloween, álbum que no me canso de escuchar, repleto de riffs y estribillos cargados de melodía y buen heavy metal. Espero, como siempre, que disfrutéis.

   Un saludo.
   TabsFácil


Creatures in heaven. Helloween.


(0:39)
1.-------------------------------------
2.-------------------------------------
3.--------2----------------------------
4.--5-3-5---3--2-3-5-2--0-2-3-0--------
5.------------------------------3--3/5-
6.-------------------------------------

1.-------------------------------------
2.-------------------------------------
3.-------2-----------------------------
4.-5-3-5---3--2-3-5-2--0-2-3-0---------
5.-----------------------------3-3--3/5
6.-------------------------------------

1.-------------------------------------
2.-------------------------------------
3.-------2-----------------------------
4.-5-3-5---3--2-3-5-2--0-2-3-0---------
5.-----------------------------3-3--3/5
6.-------------------------------------

1.-------------------------------------
2.-------------------------------------
3.-------2-----------------------------
4.-5-3-5---3--2-3-5-2--0-2-3-0--------7
5.-----------------------------3-3--3/5
6.-------------------------------------

1.-------------------------------------
2.-------------------------------------
3.-------------------------------------
4.--5-------------------7--5-----------
5.--3--1-1--1-1--3-3--3/5--3--1-1--1-1-
6.----------------------------------...

(1:28)
1.------------------------------------
2.------------------------------------
3.--------------------5---------------
4.--7---5/7---5-5/7---3---5---7---5/5-
5.--5---3/5---3-3/5-------3---5---3/5-
6.------------------------------------

1.-----------------------
2.-----------------------
3.--7-7h5----------------
4.--------8--------------
5.------------7--8--10---
6.------------5--6--8--5-...

No hay comentarios:

Publicar un comentario en la entrada