.

banners

Tabs fácil de...Ask loke falls. Amon Amarth.

Tablaturas fáciles para guitarra.














Ask loke falls. Amon Amarth.



1.----------------------------
2.----------------------------
3.-9-10-9-10---9-10-9-12-10-9-
4.----------------------------
5.----------------------------
6.----------------------------

1.--------------------
2.--------------------
3.-9-10-9-10---9-10-9-
4.--------------------
5.--------------------
6.--------------------





1.---------------------------------------
2.-10------------------------------------
3.----12-10---9-10-9-10---9-10-9-12-10-9-
4.---------------------------------------
5.---------------------------------------
6.---------------------------------------


1.-------------------
2.-------------------
3.-9-10-9-10--9/10\7-
4.-------------------
5.-------------------
6.-------------------



    t           t           t           t
1.-------------------------------------------
2.-18-17-15-17-18-17-15-17-18-17-15-17-18-17-
3.-------------------------------------------
4.-------------------------------------------
5.-------------------------------------------
6.-------------------------------------------





         t            t          t           
1.-------------------------------------------
2.-15-17-20-17-15-17-20-17-15-17-17-15-13-15-
3.-------------------------------------------
4.-------------------------------------------
5.-------------------------------------------
6.-------------------------------------------


   t
1.-------------
2.-17-15-13-15-
3.-------------
4.-------------
5.-------------
6.-------------



1.-------------------------------------------
2.-------------------------------------------
3.-------------------------------------------
4.-3---0-0-0---0-2-3---0-0-0---0-2-3---0-0-0-
5.-------------------------------------------
6.-------------------------------------------





1.------------------------
2.------------------------
3.-----3-3-2-0------------
4.-0-2---------3-2-3-2-0--
5.------------------------
6.------------------------

No hay comentarios:

Publicar un comentario en la entrada